  0
SECTION
  2
HEADER
  9
$ACADVER
  1
AC1018
  9
$ACADMAINTVER
 70
     0
  9
$DWGCODEPAGE
  3
ANSI_1252
  9
$INSBASE
 10
0.0
 20
0.0
 30
0.0
  9
$EXTMIN
 10
-0.5
 20
-0.5
 30
-0.5
  9
$EXTMAX
 10
5.0
 20
5.0
 30
5.0
  9
$LIMMIN
 10
-0.5
 20
-0.5
  9
$LIMMAX
 10
5.0
 20
5.0
  9
$ORTHOMODE
 70
     0
  9
$REGENMODE
 70
     1
  9
$FILLMODE
 70
     1
  9
$QTEXTMODE
 70
     0
  9
$MIRRTEXT
 70
     1
  9
$LTSCALE
 40
1.0
  9
$ATTMODE
 70
     1
  9
$TEXTSIZE
 40
0.2
  9
$TRACEWID
 40
0.05
  9
$TEXTSTYLE
  7
Standard
  9
$CLAYER
  8
0
  9
$CELTYPE
  6
ByLayer
  9
$CECOLOR
 62
   256
  9
$CELTSCALE
 40
1.0
  9
$DISPSILH
 70
     0
  9
$DIMSCALE
 40
1.0
  9
$DIMASZ
 40
0.18
  9
$DIMEXO
 40
0.0625
  9
$DIMDLI
 40
0.38
  9
$DIMRND
 40
0.0
  9
$DIMDLE
 40
0.0
  9
$DIMEXE
 40
0.18
  9
$DIMTP
 40
0.0
  9
$DIMTM
 40
0.0
  9
$DIMTXT
 40
0.18
  9
$DIMCEN
 40
0.09
  9
$DIMTSZ
 40
0.0
  9
$DIMTOL
 70
     0
  9
$DIMLIM
 70
     0
  9
$DIMTIH
 70
     1
  9
$DIMTOH
 70
     1
  9
$DIMSE1
 70
     0
  9
$DIMSE2
 70
     0
  9
$DIMTAD
 70
     0
  9
$DIMZIN
 70
     0
  9
$DIMBLK
  1

  9
$DIMASO
 70
     1
  9
$DIMSHO
 70
     1
  9
$DIMPOST
  1

  9
$DIMAPOST
  1

  9
$DIMALT
 70
     0
  9
$DIMALTD
 70
     2
  9
$DIMALTF
 40
25.4
  9
$DIMLFAC
 40
1.0
  9
$DIMTOFL
 70
     0
  9
$DIMTVP
 40
0.0
  9
$DIMTIX
 70
     0
  9
$DIMSOXD
 70
     0
  9
$DIMSAH
 70
     0
  9
$DIMBLK1
  1

  9
$DIMBLK2
  1

  9
$DIMSTYLE
  2
Standard
  9
$DIMCLRD
 70
     0
  9
$DIMCLRE
 70
     0
  9
$DIMCLRT
 70
     0
  9
$DIMTFAC
 40
1.0
  9
$DIMGAP
 40
0.09
  9
$DIMJUST
 70
     0
  9
$DIMSD1
 70
     0
  9
$DIMSD2
 70
     0
  9
$DIMTOLJ
 70
     1
  9
$DIMTZIN
 70
     0
  9
$DIMALTZ
 70
     0
  9
$DIMALTTZ
 70
     0
  9
$DIMUPT
 70
     0
  9
$DIMDEC
 70
     4
  9
$DIMTDEC
 70
     4
  9
$DIMALTU
 70
     2
  9
$DIMALTTD
 70
     2
  9
$DIMTXSTY
  7
Standard
  9
$DIMAUNIT
 70
     0
  9
$DIMADEC
 70
     0
  9
$DIMALTRND
 40
0.0
  9
$DIMAZIN
 70
     0
  9
$DIMDSEP
 70
    46
  9
$DIMATFIT
 70
     3
  9
$DIMFRAC
 70
     0
  9
$DIMLDRBLK
  1

  9
$DIMLUNIT
 70
     2
  9
$DIMLWD
 70
    -2
  9
$DIMLWE
 70
    -2
  9
$DIMTMOVE
 70
     0
  9
$LUNITS
 70
     2
  9
$LUPREC
 70
     4
  9
$SKETCHINC
 40
0.1
  9
$FILLETRAD
 40
0.5
  9
$AUNITS
 70
     0
  9
$AUPREC
 70
     0
  9
$MENU
  1
.
  9
$ELEVATION
 40
0.0
  9
$PELEVATION
 40
0.0
  9
$THICKNESS
 40
0.0
  9
$LIMCHECK
 70
     0
  9
$CHAMFERA
 40
0.0
  9
$CHAMFERB
 40
0.0
  9
$CHAMFERC
 40
0.0
  9
$CHAMFERD
 40
0.0
  9
$SKPOLY
 70
     0
  9
$TDCREATE
 40
2460054.588974074
  9
$TDUCREATE
 40
2460054.505640741
  9
$TDUPDATE
 40
2460054.588974537
  9
$TDUUPDATE
 40
2460054.505641204
  9
$TDINDWG
 40
0.0000000116
  9
$TDUSRTIMER
 40
0.0000000116
  9
$USRTIMER
 70
     1
  9
$ANGBASE
 50
0.0
  9
$ANGDIR
 70
     0
  9
$PDMODE
 70
     0
  9
$PDSIZE
 40
0.0
  9
$PLINEWID
 40
0.0
  9
$SPLFRAME
 70
     0
  9
$SPLINETYPE
 70
     6
  9
$SPLINESEGS
 70
     8
  9
$HANDSEED
  5
1E3
  9
$SURFTAB1
 70
     6
  9
$SURFTAB2
 70
     6
  9
$SURFTYPE
 70
     6
  9
$SURFU
 70
     6
  9
$SURFV
 70
     6
  9
$UCSBASE
  2

  9
$UCSNAME
  2

  9
$UCSORG
 10
0.0
 20
0.0
 30
0.0
  9
$UCSXDIR
 10
1.0
 20
0.0
 30
0.0
  9
$UCSYDIR
 10
0.0
 20
1.0
 30
0.0
  9
$UCSORTHOREF
  2

  9
$UCSORTHOVIEW
 70
     0
  9
$UCSORGTOP
 10
0.0
 20
0.0
 30
0.0
  9
$UCSORGBOTTOM
 10
0.0
 20
0.0
 30
0.0
  9
$UCSORGLEFT
 10
0.0
 20
0.0
 30
0.0
  9
$UCSORGRIGHT
 10
0.0
 20
0.0
 30
0.0
  9
$UCSORGFRONT
 10
0.0
 20
0.0
 30
0.0
  9
$UCSORGBACK
 10
0.0
 20
0.0
 30
0.0
  9
$PUCSBASE
  2

  9
$PUCSNAME
  2

  9
$PUCSORG
 10
0.0
 20
0.0
 30
0.0
  9
$PUCSXDIR
 10
1.0
 20
0.0
 30
0.0
  9
$PUCSYDIR
 10
0.0
 20
1.0
 30
0.0
  9
$PUCSORTHOREF
  2

  9
$PUCSORTHOVIEW
 70
     0
  9
$PUCSORGTOP
 10
0.0
 20
0.0
 30
0.0
  9
$PUCSORGBOTTOM
 10
0.0
 20
0.0
 30
0.0
  9
$PUCSORGLEFT
 10
0.0
 20
0.0
 30
0.0
  9
$PUCSORGRIGHT
 10
0.0
 20
0.0
 30
0.0
  9
$PUCSORGFRONT
 10
0.0
 20
0.0
 30
0.0
  9
$PUCSORGBACK
 10
0.0
 20
0.0
 30
0.0
  9
$USERI1
 70
     0
  9
$USERI2
 70
     0
  9
$USERI3
 70
     0
  9
$USERI4
 70
     0
  9
$USERI5
 70
     0
  9
$USERR1
 40
0.0
  9
$USERR2
 40
0.0
  9
$USERR3
 40
0.0
  9
$USERR4
 40
0.0
  9
$USERR5
 40
0.0
  9
$WORLDVIEW
 70
     1
  9
$SHADEDGE
 70
     3
  9
$SHADEDIF
 70
    70
  9
$TILEMODE
 70
     1
  9
$MAXACTVP
 70
    64
  9
$PINSBASE
 10
0.0
 20
0.0
 30
0.0
  9
$PLIMCHECK
 70
     0
  9
$PEXTMIN
 10
-0.5
 20
-0.5
 30
-0.5
  9
$PEXTMAX
 10
5.0
 20
5.0
 30
5.0
  9
$PLIMMIN
 10
-0.5
 20
-0.5
  9
$PLIMMAX
 10
5.0
 20
5.0
  9
$UNITMODE
 70
     0
  9
$VISRETAIN
 70
     1
  9
$PLINEGEN
 70
     0
  9
$PSLTSCALE
 70
     1
  9
$TREEDEPTH
 70
  3020
  9
$CMLSTYLE
  2
Standard
  9
$CMLJUST
 70
     0
  9
$CMLSCALE
 40
1.0
  9
$PROXYGRAPHICS
 70
     1
  9
$MEASUREMENT
 70
     1
  9
$CELWEIGHT
370
    18
  9
$ENDCAPS
280
     0
  9
$JOINSTYLE
280
     0
  9
$LWDISPLAY
290
     1
  9
$INSUNITS
 70
     4
  9
$HYPERLINKBASE
  1

  9
$STYLESHEET
  1

  9
$XEDIT
290
     1
  9
$CEPSNTYPE
380
     0
  9
$PSTYLEMODE
290
     1
  9
$FINGERPRINTGUID
  2
{B1900D7D-F69E-4566-B91A-4CB1563CE66E}
  9
$VERSIONGUID
  2
{FAEB1C32-E019-11D5-929B-00C0DF256EC4}
  9
$EXTNAMES
290
     1
  9
$PSVPSCALE
 40
0.0
  9
$OLESTARTUP
290
     0
  9
$SORTENTS
280
   127
  9
$INDEXCTL
280
     0
  9
$HIDETEXT
280
     1
  9
$XCLIPFRAME
290
     0
  9
$HALOGAP
280
     0
  9
$OBSCOLOR
 70
   257
  9
$OBSLTYPE
280
     0
  9
$INTERSECTIONDISPLAY
280
     0
  9
$INTERSECTIONCOLOR
 70
   257
  9
$DIMASSOC
280
     2
  9
$PROJECTNAME
  1

  0
ENDSEC
  0
SECTION
  2
CLASSES
  0
CLASS
  1
ACDBDICTIONARYWDFLT
  2
AcDbDictionaryWithDefault
  3
ObjectDBX Classes
 90
        0
 91
        3
280
     0
281
     0
  0
CLASS
  1
VISUALSTYLE
  2
AcDbVisualStyle
  3
ObjectDBX Classes
 90
     4095
 91
        3
280
     0
281
     0
  0
CLASS
  1
MATERIAL
  2
AcDbMaterial
  3
ObjectDBX Classes
 90
     1153
 91
        3
280
     0
281
     0
  0
CLASS
  1
SCALE
  2
AcDbScale
  3
ObjectDBX Classes
 90
     1153
 91
        3
280
     0
281
     0
  0
CLASS
  1
TABLESTYLE
  2
AcDbTableStyle
  3
ObjectDBX Classes
 90
     4095
 91
        3
280
     0
281
     0
  0
CLASS
  1
MLEADERSTYLE
  2
AcDbMLeaderStyle
  3
ACDB_MLEADERSTYLE_CLASS
 90
     4095
 91
        3
280
     0
281
     0
  0
CLASS
  1
SUN
  2
AcDbSun
  3
SCENEOE
 90
     1153
 91
        3
280
     0
281
     0
  0
CLASS
  1
DICTIONARYVAR
  2
AcDbDictionaryVar
  3
ObjectDBX Classes
 90
        0
 91
        3
280
     0
281
     0
  0
CLASS
  1
CELLSTYLEMAP
  2
AcDbCellStyleMap
  3
ObjectDBX Classes
 90
     1152
 91
        3
280
     0
281
     0
  0
ENDSEC
  0
SECTION
  2
TABLES
  0
TABLE
  2
VPORT
  5
8
102
{ACAD_XDICTIONARY
360
19C
102
}
330
0
100
AcDbSymbolTable
 70
    16
  0
VPORT
  5
29
330
8
100
AcDbSymbolTableRecord
100
AcDbViewportTableRecord
  2
*Active
 70
     0
 10
0.0
 20
0.0
 11
1.0
 21
1.0
 12
589.855903
 22
414.128853
 13
0.0
 23
0.0
 14
0.5
 24
0.5
 15
0.5
 25
0.5
 16
0.0
 26
0.0
 36
1.0
 17
0.0
 27
0.0
 37
0.0
 40
254.0
 41
0.069908
 42
50.0
 43
1251.985444
 44
-1251.985444
 50
0.0
 51
0.0
 71
     0
 72
   100
 73
     1
 74
     3
 75
     0
 76
     0
 77
     0
 78
     0
281
     0
 65
     1
110
0.0
120
0.0
130
0.0
111
1.0
121
0.0
131
0.0
112
0.0
122
1.0
132
0.0
 79
     0
146
0.0
  0
VPORT
  5
18D
330
8
100
AcDbSymbolTableRecord
100
AcDbViewportTableRecord
  2
L1
 70
     0
 10
0.0
 20
0.0
 11
1.0
 21
1.0
 12
589.855903
 22
414.128853
 13
0.0
 23
0.0
 14
0.5
 24
0.5
 15
0.5
 25
0.5
 16
0.0
 26
0.0
 36
1.0
 17
0.0
 27
0.0
 37
0.0
 40
254.0
 41
0.069908
 42
50.0
 43
1251.985444
 44
-1251.985444
 50
0.0
 51
0.0
 71
     0
 72
   100
 73
     1
 74
     3
 75
     0
 76
     0
 77
     0
 78
     0
281
     0
 65
     1
110
0.0
120
0.0
130
0.0
111
1.0
121
0.0
131
0.0
112
0.0
122
1.0
132
0.0
 79
     0
146
0.0
  0
VPORT
  5
18E
330
8
100
AcDbSymbolTableRecord
100
AcDbViewportTableRecord
  2
L2
 70
     0
 10
0.0
 20
0.0
 11
0.5
 21
1.0
 12
0.0
 22
0.0
 13
0.0
 23
0.0
 14
0.5
 24
0.5
 15
0.5
 25
0.5
 16
0.0
 26
-1.0
 36
0.0
 17
0.0
 27
0.0
 37
0.0
 40
1554.140024
 41
0.011425
 42
50.0
 43
799.170128
 44
-799.170128
 50
0.0
 51
0.0
 71
     0
 72
   100
 73
     1
 74
     3
 75
     0
 76
     0
 77
     0
 78
     0
281
     0
 65
     1
110
0.0
120
0.0
130
0.0
111
1.0
121
0.0
131
0.0
112
0.0
122
1.0
132
0.0
 79
     0
146
0.0
  0
VPORT
  5
18F
330
8
100
AcDbSymbolTableRecord
100
AcDbViewportTableRecord
  2
L2
 70
     0
 10
0.5
 20
0.0
 11
1.0
 21
1.0
 12
0.0
 22
0.0
 13
0.0
 23
0.0
 14
0.5
 24
0.5
 15
0.5
 25
0.5
 16
1.0
 26
0.0
 36
0.0
 17
0.0
 27
0.0
 37
0.0
 40
1554.140024
 41
0.011425
 42
50.0
 43
787.379708
 44
-787.379708
 50
0.0
 51
0.0
 71
     0
 72
   100
 73
     1
 74
     3
 75
     0
 76
     0
 77
     0
 78
     0
281
     0
 65
     1
110
0.0
120
0.0
130
0.0
111
1.0
121
0.0
131
0.0
112
0.0
122
1.0
132
0.0
 79
     0
146
0.0
  0
VPORT
  5
190
330
8
100
AcDbSymbolTableRecord
100
AcDbViewportTableRecord
  2
L3
 70
     0
 10
0.0
 20
0.5
 11
1.0
 21
1.0
 12
589.855903
 22
414.128853
 13
0.0
 23
0.0
 14
0.5
 24
0.5
 15
0.5
 25
0.5
 16
0.0
 26
0.0
 36
1.0
 17
0.0
 27
0.0
 37
0.0
 40
254.0
 41
0.069908
 42
50.0
 43
1251.985444
 44
-1251.985444
 50
0.0
 51
0.0
 71
     0
 72
   100
 73
     1
 74
     3
 75
     0
 76
     0
 77
     0
 78
     0
281
     0
 65
     1
110
0.0
120
0.0
130
0.0
111
1.0
121
0.0
131
0.0
112
0.0
122
1.0
132
0.0
 79
     0
146
0.0
  0
VPORT
  5
191
330
8
100
AcDbSymbolTableRecord
100
AcDbViewportTableRecord
  2
L3
 70
     0
 10
0.0
 20
0.0
 11
1.0
 21
0.5
 12
0.0
 22
0.0
 13
0.0
 23
0.0
 14
0.5
 24
0.5
 15
0.5
 25
0.5
 16
0.0
 26
-1.0
 36
0.0
 17
0.0
 27
0.0
 37
0.0
 40
1554.140024
 41
0.011425
 42
50.0
 43
799.170128
 44
-799.170128
 50
0.0
 51
0.0
 71
     0
 72
   100
 73
     1
 74
     3
 75
     0
 76
     0
 77
     0
 78
     0
281
     0
 65
     1
110
0.0
120
0.0
130
0.0
111
1.0
121
0.0
131
0.0
112
0.0
122
1.0
132
0.0
 79
     0
146
0.0
  0
VPORT
  5
192
330
8
100
AcDbSymbolTableRecord
100
AcDbViewportTableRecord
  2
L4
 70
     0
 10
0.0
 20
0.5
 11
0.5
 21
1.0
 12
589.855903
 22
414.128853
 13
0.0
 23
0.0
 14
0.5
 24
0.5
 15
0.5
 25
0.5
 16
0.0
 26
0.0
 36
1.0
 17
0.0
 27
0.0
 37
0.0
 40
254.0
 41
0.069908
 42
50.0
 43
1251.985444
 44
-1251.985444
 50
0.0
 51
0.0
 71
     0
 72
   100
 73
     1
 74
     3
 75
     0
 76
     0
 77
     0
 78
     0
281
     0
 65
     1
110
0.0
120
0.0
130
0.0
111
1.0
121
0.0
131
0.0
112
0.0
122
1.0
132
0.0
 79
     0
146
0.0
  0
VPORT
  5
193
330
8
100
AcDbSymbolTableRecord
100
AcDbViewportTableRecord
  2
L4
 70
     0
 10
0.0
 20
0.0
 11
0.5
 21
0.5
 12
0.0
 22
0.0
 13
0.0
 23
0.0
 14
0.5
 24
0.5
 15
0.5
 25
0.5
 16
0.0
 26
-1.0
 36
0.0
 17
0.0
 27
0.0
 37
0.0
 40
1554.140024
 41
0.011425
 42
50.0
 43
799.170128
 44
-799.170128
 50
0.0
 51
0.0
 71
     0
 72
   100
 73
     1
 74
     3
 75
     0
 76
     0
 77
     0
 78
     0
281
     0
 65
     1
110
0.0
120
0.0
130
0.0
111
1.0
121
0.0
131
0.0
112
0.0
122
1.0
132
0.0
 79
     0
146
0.0
  0
VPORT
  5
194
330
8
100
AcDbSymbolTableRecord
100
AcDbViewportTableRecord
  2
L4
 70
     0
 10
0.5
 20
0.0
 11
1.0
 21
0.5
 12
0.0
 22
0.0
 13
0.0
 23
0.0
 14
0.5
 24
0.5
 15
0.5
 25
0.5
 16
1.0
 26
0.0
 36
0.0
 17
0.0
 27
0.0
 37
0.0
 40
1554.140024
 41
0.011425
 42
50.0
 43
787.379708
 44
-787.379708
 50
0.0
 51
0.0
 71
     0
 72
   100
 73
     1
 74
     3
 75
     0
 76
     0
 77
     0
 78
     0
281
     0
 65
     1
110
0.0
120
0.0
130
0.0
111
1.0
121
0.0
131
0.0
112
0.0
122
1.0
132
0.0
 79
     0
146
0.0
  0
VPORT
  5
195
330
8
100
AcDbSymbolTableRecord
100
AcDbViewportTableRecord
  2
L4
 70
     0
 10
0.5
 20
0.5
 11
1.0
 21
1.0
 12
0.0
 22
0.0
 13
0.0
 23
0.0
 14
0.5
 24
0.5
 15
0.5
 25
0.5
 16
0.5773502691896258
 26
-0.5773502691896258
 36
0.5773502691896258
 17
0.0
 27
0.0
 37
0.0
 40
1525.037316
 41
0.011643
 42
50.0
 43
794.116007
 44
-794.116007
 50
0.0
 51
0.0
 71
     0
 72
   100
 73
     1
 74
     3
 75
     0
 76
     0
 77
     0
 78
     0
281
     0
 65
     1
110
0.0
120
0.0
130
0.0
111
1.0
121
0.0
131
0.0
112
0.0
122
1.0
132
0.0
 79
     0
146
0.0
  0
VPORT
  5
196
330
8
100
AcDbSymbolTableRecord
100
AcDbViewportTableRecord
  2
L6
 70
     0
 10
0.0
 20
0.5
 11
0.333333
 21
1.0
 12
0.0
 22
0.0
 13
0.0
 23
0.0
 14
0.5
 24
0.5
 15
0.5
 25
0.5
 16
0.7188730927569433
 26
-0.5850486126764433
 36
0.3754192287502549
 17
0.0
 27
0.0
 37
0.0
 40
1609.344902
 41
0.011034
 42
50.0
 43
833.240238
 44
-833.240238
 50
0.0
 51
0.0
 71
     0
 72
   100
 73
     1
 74
     3
 75
     0
 76
     0
 77
     0
 78
     0
281
     0
 65
     1
110
0.0
120
0.0
130
0.0
111
1.0
121
0.0
131
0.0
112
0.0
122
1.0
132
0.0
 79
     0
146
0.0
  0
VPORT
  5
197
330
8
100
AcDbSymbolTableRecord
100
AcDbViewportTableRecord
  2
L6
 70
     0
 10
0.0
 20
0.0
 11
0.333333
 21
0.5
 12
0.0
 22
0.0
 13
0.0
 23
0.0
 14
0.5
 24
0.5
 15
0.5
 25
0.5
 16
-1.0
 26
0.0
 36
0.0
 17
0.0
 27
0.0
 37
0.0
 40
1554.140024
 41
0.011425
 42
50.0
 43
787.379708
 44
-787.379708
 50
0.0
 51
0.0
 71
     0
 72
   100
 73
     1
 74
     3
 75
     0
 76
     0
 77
     0
 78
     0
281
     0
 65
     1
110
0.0
120
0.0
130
0.0
111
1.0
121
0.0
131
0.0
112
0.0
122
1.0
132
0.0
 79
     0
146
0.0
  0
VPORT
  5
198
330
8
100
AcDbSymbolTableRecord
100
AcDbViewportTableRecord
  2
L6
 70
     0
 10
0.333333
 20
0.5
 11
0.666667
 21
1.0
 12
589.855903
 22
414.128853
 13
0.0
 23
0.0
 14
0.5
 24
0.5
 15
0.5
 25
0.5
 16
0.0
 26
0.0
 36
1.0
 17
0.0
 27
0.0
 37
0.0
 40
254.0
 41
0.069908
 42
50.0
 43
1251.985444
 44
-1251.985444
 50
0.0
 51
0.0
 71
     0
 72
   100
 73
     1
 74
     3
 75
     0
 76
     0
 77
     0
 78
     0
281
     0
 65
     1
110
0.0
120
0.0
130
0.0
111
1.0
121
0.0
131
0.0
112
0.0
122
1.0
132
0.0
 79
     0
146
0.0
  0
VPORT
  5
199
330
8
100
AcDbSymbolTableRecord
100
AcDbViewportTableRecord
  2
L6
 70
     0
 10
0.333333
 20
0.0
 11
0.666667
 21
0.5
 12
0.0
 22
0.0
 13
0.0
 23
0.0
 14
0.5
 24
0.5
 15
0.5
 25
0.5
 16
0.0
 26
-1.0
 36
0.0
 17
0.0
 27
0.0
 37
0.0
 40
1554.140024
 41
0.011425
 42
50.0
 43
799.170128
 44
-799.170128
 50
0.0
 51
0.0
 71
     0
 72
   100
 73
     1
 74
     3
 75
     0
 76
     0
 77
     0
 78
     0
281
     0
 65
     1
110
0.0
120
0.0
130
0.0
111
1.0
121
0.0
131
0.0
112
0.0
122
1.0
132
0.0
 79
     0
146
0.0
  0
VPORT
  5
19A
330
8
100
AcDbSymbolTableRecord
100
AcDbViewportTableRecord
  2
L6
 70
     0
 10
0.666667
 20
0.5
 11
1.0
 21
1.0
 12
0.0
 22
0.0
 13
0.0
 23
0.0
 14
0.5
 24
0.5
 15
0.5
 25
0.5
 16
0.5773502691896258
 26
-0.5773502691896258
 36
0.5773502691896258
 17
0.0
 27
0.0
 37
0.0
 40
1525.037316
 41
0.011643
 42
50.0
 43
794.116007
 44
-794.116007
 50
0.0
 51
0.0
 71
     0
 72
   100
 73
     1
 74
     3
 75
     0
 76
     0
 77
     0
 78
     0
281
     0
 65
     1
110
0.0
120
0.0
130
0.0
111
1.0
121
0.0
131
0.0
112
0.0
122
1.0
132
0.0
 79
     0
146
0.0
  0
VPORT
  5
19B
330
8
100
AcDbSymbolTableRecord
100
AcDbViewportTableRecord
  2
L6
 70
     0
 10
0.666667
 20
0.0
 11
1.0
 21
0.5
 12
0.0
 22
0.0
 13
0.0
 23
0.0
 14
0.5
 24
0.5
 15
0.5
 25
0.5
 16
1.0
 26
0.0
 36
0.0
 17
0.0
 27
0.0
 37
0.0
 40
1554.140024
 41
0.011425
 42
50.0
 43
787.379708
 44
-787.379708
 50
0.0
 51
0.0
 71
     0
 72
   100
 73
     1
 74
     3
 75
     0
 76
     0
 77
     0
 78
     0
281
     0
 65
     1
110
0.0
120
0.0
130
0.0
111
1.0
121
0.0
131
0.0
112
0.0
122
1.0
132
0.0
 79
     0
146
0.0
  0
ENDTAB
  0
TABLE
  2
LTYPE
  5
5
330
0
100
AcDbSymbolTable
 70
     6
  0
LTYPE
  5
14
330
5
100
AcDbSymbolTableRecord
100
AcDbLinetypeTableRecord
  2
ByBlock
 70
     0
  3

 72
    65
 73
     0
 40
0.0
  0
LTYPE
  5
15
330
5
100
AcDbSymbolTableRecord
100
AcDbLinetypeTableRecord
  2
ByLayer
 70
     0
  3

 72
    65
 73
     0
 40
0.0
  0
LTYPE
  5
16
330
5
100
AcDbSymbolTableRecord
100
AcDbLinetypeTableRecord
  2
Continuous
 70
     0
  3
Solid line
 72
    65
 73
     0
 40
0.0
  0
LTYPE
  5
6E
330
5
100
AcDbSymbolTableRecord
100
AcDbLinetypeTableRecord
  2
CENTER
 70
     0
  3
____ _ ____ _ ____ _ ____
 72
    65
 73
     4
 40
47.4
 49
22.0
 74
     4
 75
     0
340
0
 46
0.0
 50
0.0
 44
0.0
 45
0.0
 49
-8.5
 74
     4
 75
     0
340
0
 46
0.0
 50
0.0
 44
0.0
 45
0.0
 49
8.5
 74
     4
 75
     0
340
0
 46
0.0
 50
0.0
 44
0.0
 45
0.0
 49
-8.5
 74
     4
 75
     0
340
0
 46
0.0
 50
0.0
 44
0.0
 45
0.0
  0
LTYPE
  5
6F
330
5
100
AcDbSymbolTableRecord
100
AcDbLinetypeTableRecord
  2
DASHDOT
 70
     0
  3
_._._._._._._._._._._._._._._._.
 72
    65
 73
     4
 40
70.0
 49
31.0
 74
     4
 75
     0
340
0
 46
0.0
 50
0.0
 44
0.0
 45
0.0
 49
-13.0
 74
     4
 75
     0
340
0
 46
0.0
 50
0.0
 44
0.0
 45
0.0
 49
13.0
 74
     4
 75
     0
340
0
 46
0.0
 50
0.0
 44
0.0
 45
0.0
 49
-13.0
 74
     4
 75
     0
340
0
 46
0.0
 50
0.0
 44
0.0
 45
0.0
  0
LTYPE
  5
70
330
5
100
AcDbSymbolTableRecord
100
AcDbLinetypeTableRecord
  2
DASHED
 70
     0
  3
__ __ __ __ __ __ __ __ __
 72
    65
 73
     2
 40
25.72
 49
12.86
 74
     4
 75
     0
340
0
 46
0.0
 50
0.0
 44
0.0
 45
0.0
 49
-12.86
 74
     4
 75
     0
340
0
 46
0.0
 50
0.0
 44
0.0
 45
0.0
  0
LTYPE
  5
71
330
5
100
AcDbSymbolTableRecord
100
AcDbLinetypeTableRecord
  2
DOT
 70
     0
  3
.........................
 72
    65
 73
     2
 40
10.0
 49
0.0
 74
     4
 75
     0
340
0
 46
0.0
 50
0.0
 44
0.0
 45
0.0
 49
-10.0
 74
     4
 75
     0
340
0
 46
0.0
 50
0.0
 44
0.0
 45
0.0
  0
LTYPE
  5
72
330
5
100
AcDbSymbolTableRecord
100
AcDbLinetypeTableRecord
  2
PHANTOM
 70
     0
  3
____ _ _ ____ _ _ _____ _ _ ____
 72
    65
 73
     6
 40
50.5
 49
18.0
 74
     4
 75
     0
340
0
 46
0.0
 50
0.0
 44
0.0
 45
0.0
 49
-6.5
 74
     4
 75
     0
340
0
 46
0.0
 50
0.0
 44
0.0
 45
0.0
 49
6.5
 74
     4
 75
     0
340
0
 46
0.0
 50
0.0
 44
0.0
 45
0.0
 49
-6.5
 74
     4
 75
     0
340
0
 46
0.0
 50
0.0
 44
0.0
 45
0.0
 49
6.5
 74
     4
 75
     0
340
0
 46
0.0
 50
0.0
 44
0.0
 45
0.0
 49
-6.5
 74
     4
 75
     0
340
0
 46
0.0
 50
0.0
 44
0.0
 45
0.0
  0
ENDTAB
  0
TABLE
  2
LAYER
  5
2
330
0
100
AcDbSymbolTable
 70
     3
  0
LAYER
  5
10
330
2
100
AcDbSymbolTableRecord
100
AcDbLayerTableRecord
  2
0
 70
     0
 62
     7
  6
Continuous
370
    -3
390
F
  0
LAYER
  5
74
330
2
100
AcDbSymbolTableRecord
100
AcDbLayerTableRecord
  2
2
 70
     0
 62
     7
420
 16777215
  6
Continuous
370
    -3
390
F
  0
LAYER
  5
79
330
2
100
AcDbSymbolTableRecord
100
AcDbLayerTableRecord
  2
1
 70
     0
 62
     7
420
 16777215
  6
Continuous
370
    -3
390
F
  0
ENDTAB
  0
TABLE
  2
STYLE
  5
3
330
0
100
AcDbSymbolTable
 70
     1
  0
STYLE
  5
11
330
3
100
AcDbSymbolTableRecord
100
AcDbTextStyleTableRecord
  2
Standard
 70
     0
 40
0.0
 41
1.0
 50
0.0
 71
     0
 42
0.2
  3
txt
  4

  0
ENDTAB
  0
TABLE
  2
VIEW
  5
6
330
0
100
AcDbSymbolTable
 70
     0
  0
ENDTAB
  0
TABLE
  2
UCS
  5
7
330
0
100
AcDbSymbolTable
 70
     0
  0
ENDTAB
  0
TABLE
  2
APPID
  5
9
330
0
100
AcDbSymbolTable
 70
     2
  0
APPID
  5
12
330
9
100
AcDbSymbolTableRecord
100
AcDbRegAppTableRecord
  2
ACAD
 70
     0
  0
APPID
  5
1DB
330
9
100
AcDbSymbolTableRecord
100
AcDbRegAppTableRecord
  2
ACAD_MLEADERVER
 70
     0
  0
ENDTAB
  0
TABLE
  2
DIMSTYLE
  5
A
330
0
100
AcDbSymbolTable
 70
     1
100
AcDbDimStyleTable
  0
DIMSTYLE
105
27
330
A
100
AcDbSymbolTableRecord
100
AcDbDimStyleTableRecord
  2
Standard
 70
     0
178
     0
340
11
  0
ENDTAB
  0
TABLE
  2
BLOCK_RECORD
  5
1
330
0
100
AcDbSymbolTable
 70
     1
  0
BLOCK_RECORD
  5
1F
330
1
100
AcDbSymbolTableRecord
100
AcDbBlockTableRecord
  2
*Model_Space
340
22
  0
BLOCK_RECORD
  5
1B
330
1
100
AcDbSymbolTableRecord
100
AcDbBlockTableRecord
  2
*Paper_Space
340
1E
  0
BLOCK_RECORD
  5
23
330
1
100
AcDbSymbolTableRecord
100
AcDbBlockTableRecord
  2
*Paper_Space0
340
26
  0
ENDTAB
  0
ENDSEC
  0
SECTION
  2
BLOCKS
  0
BLOCK
  5
20
330
1F
100
AcDbEntity
  8
0
100
AcDbBlockBegin
  2
*Model_Space
 70
     0
 10
0.0
 20
0.0
 30
0.0
  3
*Model_Space
  1

  0
ENDBLK
  5
21
330
1F
100
AcDbEntity
  8
0
100
AcDbBlockEnd
  0
BLOCK
  5
1C
330
1B
100
AcDbEntity
 67
     1
  8
0
100
AcDbBlockBegin
  2
*Paper_Space
 70
     0
 10
0.0
 20
0.0
 30
0.0
  3
*Paper_Space
  1

  0
ENDBLK
  5
1D
330
1B
100
AcDbEntity
 67
     1
  8
0
100
AcDbBlockEnd
  0
BLOCK
  5
24
330
23
100
AcDbEntity
  8
0
100
AcDbBlockBegin
  2
*Paper_Space0
 70
     0
 10
0.0
 20
0.0
 30
0.0
  3
*Paper_Space0
  1

  0
ENDBLK
  5
25
330
23
100
AcDbEntity
  8
0
100
AcDbBlockEnd
  0
ENDSEC
  0
SECTION
  2
ENTITIES
  0
LINE
  5
73
330
1F
100
AcDbEntity
  8
2
  6
Continuous
 62
    30
370
    18
100
AcDbLine
 10
355.163895
 20
598.416741
 30
0.0
 11
355.163895
 21
638.416741
 31
0.0
  0
LINE
  5
75
330
1F
100
AcDbEntity
  8
2
  6
Continuous
 62
    30
370
    18
100
AcDbLine
 10
332.163895
 20
638.416741
 30
0.0
 11
332.163895
 21
598.416741
 31
0.0
  0
LINE
  5
76
330
1F
100
AcDbEntity
  8
2
  6
Continuous
 62
    30
370
    18
100
AcDbLine
 10
428.163895
 20
598.416741
 30
0.0
 11
428.163895
 21
638.416741
 31
0.0
  0
LINE
  5
77
330
1F
100
AcDbEntity
  8
2
  6
Continuous
 62
    30
370
    18
100
AcDbLine
 10
405.163895
 20
638.416741
 30
0.0
 11
405.163895
 21
598.416741
 31
0.0
  0
LINE
  5
78
330
1F
100
AcDbEntity
  8
1
  6
Continuous
 62
    30
370
    18
100
AcDbLine
 10
413.07286
 20
539.416741
 30
0.0
 11
413.276587
 21
540.346085
 31
0.0
  0
LINE
  5
7A
330
1F
100
AcDbEntity
  8
1
  6
Continuous
 62
    30
370
    18
100
AcDbLine
 10
347.051202
 20
540.346085
 30
0.0
 11
347.254929
 21
539.416741
 31
0.0
  0
LINE
  5
7B
330
1F
100
AcDbEntity
  8
1
  6
Continuous
 62
    30
370
    18
100
AcDbLine
 10
392.163895
 20
585.885888
 30
0.0
 11
391.663895
 21
585.885888
 31
0.0
  0
LINE
  5
7C
330
1F
100
AcDbEntity
  8
1
  6
Continuous
 62
    30
370
    18
100
AcDbLine
 10
391.663895
 20
584.385888
 30
0.0
 11
392.163895
 21
584.385888
 31
0.0
  0
LINE
  5
7D
330
1F
100
AcDbEntity
  8
1
  6
Continuous
 62
    30
370
    18
100
AcDbLine
 10
392.163895
 20
583.992876
 30
0.0
 11
391.663895
 21
583.992876
 31
0.0
  0
LINE
  5
7E
330
1F
100
AcDbEntity
  8
1
  6
Continuous
 62
    30
370
    18
100
AcDbLine
 10
368.163895
 20
577.813775
 30
0.0
 11
368.663895
 21
577.813775
 31
0.0
  0
LINE
  5
7F
330
1F
100
AcDbEntity
  8
1
  6
Continuous
 62
    30
370
    18
100
AcDbLine
 10
368.663895
 20
585.885888
 30
0.0
 11
368.163895
 21
585.885888
 31
0.0
  0
LINE
  5
80
330
1F
100
AcDbEntity
  8
1
  6
Continuous
 62
    30
370
    18
100
AcDbLine
 10
392.163895
 20
582.890553
 30
0.0
 11
391.663895
 21
582.890553
 31
0.0
  0
LINE
  5
81
330
1F
100
AcDbEntity
  8
1
  6
Continuous
 62
    30
370
    18
100
AcDbLine
 10
368.663895
 20
582.901078
 30
0.0
 11
368.163895
 21
582.901078
 31
0.0
  0
LINE
  5
82
330
1F
100
AcDbEntity
  8
1
  6
Continuous
 62
    30
370
    18
100
AcDbLine
 10
368.663895
 20
585.219102
 30
0.0
 11
368.163895
 21
585.219102
 31
0.0
  0
LINE
  5
83
330
1F
100
AcDbEntity
  8
1
  6
Continuous
 62
    30
370
    18
100
AcDbLine
 10
368.163895
 20
582.919372
 30
0.0
 11
368.663895
 21
582.919372
 31
0.0
  0
LINE
  5
84
330
1F
100
AcDbEntity
  8
1
  6
Continuous
 62
    30
370
    18
100
AcDbLine
 10
368.663895
 20
584.419372
 30
0.0
 11
368.163895
 21
584.419372
 31
0.0
  0
LINE
  5
85
330
1F
100
AcDbEntity
  8
1
  6
Continuous
 62
   252
370
    18
100
AcDbLine
 10
413.07286
 20
514.083407
 30
0.0
 11
413.07286
 21
539.416741
 31
0.0
  0
LINE
  5
86
330
1F
100
AcDbEntity
  8
1
  6
Continuous
 62
   252
370
    18
100
AcDbLine
 10
347.254929
 20
539.416741
 30
0.0
 11
347.254929
 21
514.083407
 31
0.0
  0
LINE
  5
87
330
1F
100
AcDbEntity
  8
1
  6
Continuous
 62
   252
370
    18
100
AcDbLine
 10
395.163895
 20
462.416741
 30
0.0
 11
395.163895
 21
500.416741
 31
0.0
  0
LINE
  5
88
330
1F
100
AcDbEntity
  8
1
  6
Continuous
 62
   252
370
    18
100
AcDbLine
 10
365.163895
 20
500.416741
 30
0.0
 11
365.163895
 21
462.416741
 31
0.0
  0
LINE
  5
89
330
1F
100
AcDbEntity
  8
1
  6
Continuous
 62
   252
370
    18
100
AcDbLine
 10
394.163895
 20
461.416741
 30
0.0
 11
395.163895
 21
462.416741
 31
0.0
  0
LINE
  5
8A
330
1F
100
AcDbEntity
  8
1
  6
Continuous
 62
   252
370
    18
100
AcDbLine
 10
365.163895
 20
462.416741
 30
0.0
 11
366.163895
 21
461.416741
 31
0.0
  0
LINE
  5
8B
330
1F
100
AcDbEntity
  8
1
  6
Continuous
 62
   252
370
    18
100
AcDbLine
 10
344.163895
 20
514.083407
 30
0.0
 11
344.163895
 21
502.416741
 31
0.0
  0
LINE
  5
8C
330
1F
100
AcDbEntity
  8
1
  6
Continuous
 62
   252
370
    18
100
AcDbLine
 10
416.163895
 20
502.416741
 30
0.0
 11
416.163895
 21
514.083407
 31
0.0
  0
LINE
  5
8D
330
1F
100
AcDbEntity
  8
2
  6
Continuous
 62
    30
370
    13
100
AcDbLine
 10
428.163895
 20
598.416741
 30
0.0
 11
405.163895
 21
598.416741
 31
0.0
  0
LINE
  5
8E
330
1F
100
AcDbEntity
  8
2
  6
Continuous
 62
    30
370
    13
100
AcDbLine
 10
332.163895
 20
598.416741
 30
0.0
 11
355.163895
 21
598.416741
 31
0.0
  0
LINE
  5
8F
330
1F
100
AcDbEntity
  8
2
  6
Continuous
 62
    30
370
    13
100
AcDbLine
 10
428.163895
 20
638.416741
 30
0.0
 11
405.163895
 21
638.416741
 31
0.0
  0
LINE
  5
90
330
1F
100
AcDbEntity
  8
2
  6
Continuous
 62
    30
370
    13
100
AcDbLine
 10
332.163895
 20
638.416741
 30
0.0
 11
355.163895
 21
638.416741
 31
0.0
  0
LINE
  5
91
330
1F
100
AcDbEntity
  8
1
  6
Continuous
 62
    30
370
    18
100
AcDbLine
 10
368.163895
 20
577.434155
 30
0.0
 11
368.663895
 21
577.434155
 31
0.0
  0
LINE
  5
92
330
1F
100
AcDbEntity
  8
1
  6
Continuous
 62
    30
370
    18
100
AcDbLine
 10
368.163895
 20
577.664754
 30
0.0
 11
368.663895
 21
577.664754
 31
0.0
  0
LINE
  5
93
330
1F
100
AcDbEntity
  8
1
  6
Continuous
 62
    30
370
    18
100
AcDbLine
 10
392.163895
 20
585.885888
 30
0.0
 11
392.163895
 21
584.385888
 31
0.0
  0
LINE
  5
94
330
1F
100
AcDbEntity
  8
1
  6
Continuous
 62
    30
370
    18
100
AcDbLine
 10
392.163895
 20
584.369886
 30
0.0
 11
391.663895
 21
584.369886
 31
0.0
  0
LINE
  5
95
330
1F
100
AcDbEntity
  8
1
  6
Continuous
 62
    30
370
    18
100
AcDbLine
 10
392.163895
 20
584.369586
 30
0.0
 11
392.163895
 21
584.368846
 31
0.0
  0
LINE
  5
96
330
1F
100
AcDbEntity
  8
1
  6
Continuous
 62
    30
370
    18
100
AcDbLine
 10
392.163895
 20
584.369586
 30
0.0
 11
391.663895
 21
584.369586
 31
0.0
  0
LINE
  5
97
330
1F
100
AcDbEntity
  8
1
  6
Continuous
 62
    30
370
    18
100
AcDbLine
 10
392.163895
 20
584.368812
 30
0.0
 11
391.663895
 21
584.368812
 31
0.0
  0
LINE
  5
98
330
1F
100
AcDbEntity
  8
1
  6
Continuous
 62
    30
370
    18
100
AcDbLine
 10
392.163895
 20
584.368496
 30
0.0
 11
392.163895
 21
584.367753
 31
0.0
  0
LINE
  5
99
330
1F
100
AcDbEntity
  8
1
  6
Continuous
 62
    30
370
    18
100
AcDbLine
 10
392.163895
 20
584.368496
 30
0.0
 11
391.663895
 21
584.368496
 31
0.0
  0
LINE
  5
9A
330
1F
100
AcDbEntity
  8
1
  6
Continuous
 62
    30
370
    18
100
AcDbLine
 10
392.163895
 20
584.367718
 30
0.0
 11
391.663895
 21
584.367718
 31
0.0
  0
LINE
  5
9B
330
1F
100
AcDbEntity
  8
1
  6
Continuous
 62
    30
370
    18
100
AcDbLine
 10
392.163895
 20
584.367399
 30
0.0
 11
391.663895
 21
584.367399
 31
0.0
  0
LINE
  5
9C
330
1F
100
AcDbEntity
  8
1
  6
Continuous
 62
    30
370
    18
100
AcDbLine
 10
368.163895
 20
577.823805
 30
0.0
 11
368.663895
 21
577.823805
 31
0.0
  0
LINE
  5
9D
330
1F
100
AcDbEntity
  8
1
  6
Continuous
 62
    30
370
    18
100
AcDbLine
 10
368.163895
 20
585.885888
 30
0.0
 11
368.163895
 21
585.21914
 31
0.0
  0
LINE
  5
9E
330
1F
100
AcDbEntity
  8
1
  6
Continuous
 62
    30
370
    13
100
AcDbLine
 10
392.163895
 20
582.770043
 30
0.0
 11
391.663895
 21
582.770043
 31
0.0
  0
LINE
  5
9F
330
1F
100
AcDbEntity
  8
1
  6
Continuous
 62
    30
370
    18
100
AcDbLine
 10
368.163895
 20
578.168602
 30
0.0
 11
368.663895
 21
578.168602
 31
0.0
  0
LINE
  5
A0
330
1F
100
AcDbEntity
  8
1
  6
Continuous
 62
    30
370
    18
100
AcDbLine
 10
368.163895
 20
582.304941
 30
0.0
 11
368.663895
 21
582.304941
 31
0.0
  0
LINE
  5
A1
330
1F
100
AcDbEntity
  8
1
  6
Continuous
 62
    30
370
    18
100
AcDbLine
 10
368.163895
 20
582.092645
 30
0.0
 11
368.663895
 21
582.092645
 31
0.0
  0
LINE
  5
A2
330
1F
100
AcDbEntity
  8
1
  6
Continuous
 62
    30
370
    18
100
AcDbLine
 10
392.163895
 20
577.434155
 30
0.0
 11
391.663895
 21
577.434155
 31
0.0
  0
LINE
  5
A3
330
1F
100
AcDbEntity
  8
1
  6
Continuous
 62
    30
370
    18
100
AcDbLine
 10
392.163895
 20
582.090562
 30
0.0
 11
391.663895
 21
582.090562
 31
0.0
  0
LINE
  5
A4
330
1F
100
AcDbEntity
  8
1
  6
Continuous
 62
    30
370
    18
100
AcDbLine
 10
392.163895
 20
582.300503
 30
0.0
 11
391.663895
 21
582.300503
 31
0.0
  0
LINE
  5
A5
330
1F
100
AcDbEntity
  8
1
  6
Continuous
 62
    30
370
    18
100
AcDbLine
 10
368.163895
 20
585.219102
 30
0.0
 11
368.163895
 21
584.469102
 31
0.0
  0
LINE
  5
A6
330
1F
100
AcDbEntity
  8
1
  6
Continuous
 62
    30
370
    18
100
AcDbLine
 10
368.163895
 20
584.469102
 30
0.0
 11
368.163895
 21
584.419364
 31
0.0
  0
LINE
  5
A7
330
1F
100
AcDbEntity
  8
1
  6
Continuous
 62
    30
370
    18
100
AcDbLine
 10
368.163895
 20
584.419372
 30
0.0
 11
368.163895
 21
583.669372
 31
0.0
  0
LINE
  5
A8
330
1F
100
AcDbEntity
  8
1
  6
Continuous
 62
    30
370
    18
100
AcDbLine
 10
368.163895
 20
583.669372
 30
0.0
 11
368.163895
 21
582.919372
 31
0.0
  0
LINE
  5
A9
330
1F
100
AcDbEntity
  8
1
  6
Continuous
 62
    30
370
    18
100
AcDbLine
 10
351.935227
 20
546.416741
 30
0.0
 11
357.163895
 21
546.416741
 31
0.0
  0
LINE
  5
AA
330
1F
100
AcDbEntity
  8
1
  6
Continuous
 62
    30
370
    18
100
AcDbLine
 10
368.663895
 20
587.72763
 30
0.0
 11
368.663895
 21
557.916741
 31
0.0
  0
LINE
  5
AB
330
1F
100
AcDbEntity
  8
1
  6
Continuous
 62
    30
370
    13
100
AcDbLine
 10
372.615508
 20
592.616483
 30
0.0
 11
372.615508
 21
557.997386
 31
0.0
  0
LINE
  5
AC
330
1F
100
AcDbEntity
  8
1
  6
Continuous
 62
    30
370
    13
100
AcDbLine
 10
353.184516
 20
540.346085
 30
0.0
 11
347.051202
 21
540.346085
 31
0.0
  0
LINE
  5
AD
330
1F
100
AcDbEntity
  8
1
  6
Continuous
 62
    30
370
    18
100
AcDbLine
 10
408.392563
 20
546.416741
 30
0.0
 11
403.163895
 21
546.416741
 31
0.0
  0
LINE
  5
AE
330
1F
100
AcDbEntity
  8
1
  6
Continuous
 62
    30
370
    18
100
AcDbLine
 10
391.663895
 20
587.72763
 30
0.0
 11
391.663895
 21
557.916741
 31
0.0
  0
LINE
  5
AF
330
1F
100
AcDbEntity
  8
1
  6
Continuous
 62
    30
370
    13
100
AcDbLine
 10
387.712282
 20
592.616483
 30
0.0
 11
387.712282
 21
557.997386
 31
0.0
  0
LINE
  5
B0
330
1F
100
AcDbEntity
  8
1
  6
Continuous
 62
    30
370
    18
100
AcDbLine
 10
413.07286
 20
539.416741
 30
0.0
 11
347.254929
 21
539.416741
 31
0.0
  0
LINE
  5
B1
330
1F
100
AcDbEntity
  8
1
  6
Continuous
 62
    30
370
    13
100
AcDbLine
 10
407.143274
 20
540.346085
 30
0.0
 11
413.276587
 21
540.346085
 31
0.0
  0
LINE
  5
B2
330
1F
100
AcDbEntity
  8
1
  6
Continuous
 62
    30
370
    13
100
AcDbLine
 10
389.598114
 20
549.708019
 30
0.0
 11
370.729675
 21
549.708019
 31
0.0
  0
LINE
  5
B3
330
1F
100
AcDbEntity
  8
1
  6
Continuous
 62
   252
370
    18
100
AcDbLine
 10
412.908532
 20
539.416741
 30
0.0
 11
413.07286
 21
539.416741
 31
0.0
  0
LINE
  5
B4
330
1F
100
AcDbEntity
  8
1
  6
Continuous
 62
   252
370
    18
100
AcDbLine
 10
347.419258
 20
539.416741
 30
0.0
 11
347.254929
 21
539.416741
 31
0.0
  0
LINE
  5
B5
330
1F
100
AcDbEntity
  8
1
  6
Continuous
 62
   252
370
    18
100
AcDbLine
 10
366.163895
 20
461.416741
 30
0.0
 11
380.163895
 21
461.416741
 31
0.0
  0
LINE
  5
B6
330
1F
100
AcDbEntity
  8
1
  6
Continuous
 62
   252
370
    18
100
AcDbLine
 10
380.163895
 20
461.416741
 30
0.0
 11
394.163895
 21
461.416741
 31
0.0
  0
LINE
  5
B7
330
1F
100
AcDbEntity
  8
1
  6
Continuous
 62
   252
370
    18
100
AcDbLine
 10
395.163895
 20
462.416741
 30
0.0
 11
380.163895
 21
462.416741
 31
0.0
  0
LINE
  5
B8
330
1F
100
AcDbEntity
  8
1
  6
Continuous
 62
   252
370
    18
100
AcDbLine
 10
380.163895
 20
462.416741
 30
0.0
 11
365.163895
 21
462.416741
 31
0.0
  0
LINE
  5
B9
330
1F
100
AcDbEntity
  8
1
  6
Continuous
 62
   252
370
    13
100
AcDbLine
 10
395.163895
 20
500.416741
 30
0.0
 11
365.163895
 21
500.416741
 31
0.0
  0
LINE
  5
BA
330
1F
100
AcDbEntity
  8
1
  6
Continuous
 62
   252
370
    18
100
AcDbLine
 10
347.419258
 20
514.083407
 30
0.0
 11
347.419258
 21
539.416741
 31
0.0
  0
LINE
  5
BB
330
1F
100
AcDbEntity
  8
1
  6
Continuous
 62
   252
370
    18
100
AcDbLine
 10
412.908532
 20
539.416741
 30
0.0
 11
412.908532
 21
514.083407
 31
0.0
  0
LINE
  5
BC
330
1F
100
AcDbEntity
  8
1
  6
Continuous
 62
   252
370
    18
100
AcDbLine
 10
399.380782
 20
539.416741
 30
0.0
 11
393.691644
 21
539.416741
 31
0.0
  0
LINE
  5
BD
330
1F
100
AcDbEntity
  8
1
  6
Continuous
 62
   252
370
    18
100
AcDbLine
 10
399.380782
 20
514.083407
 30
0.0
 11
399.380782
 21
539.416741
 31
0.0
  0
LINE
  5
BE
330
1F
100
AcDbEntity
  8
1
  6
Continuous
 62
   252
370
    18
100
AcDbLine
 10
393.691644
 20
539.416741
 30
0.0
 11
393.691644
 21
514.083407
 31
0.0
  0
LINE
  5
BF
330
1F
100
AcDbEntity
  8
1
  6
Continuous
 62
   252
370
    18
100
AcDbLine
 10
366.636146
 20
514.083407
 30
0.0
 11
366.636146
 21
539.416741
 31
0.0
  0
LINE
  5
C0
330
1F
100
AcDbEntity
  8
1
  6
Continuous
 62
   252
370
    18
100
AcDbLine
 10
366.636146
 20
539.416741
 30
0.0
 11
360.947007
 21
539.416741
 31
0.0
  0
LINE
  5
C1
330
1F
100
AcDbEntity
  8
1
  6
Continuous
 62
   252
370
    18
100
AcDbLine
 10
360.947007
 20
539.416741
 30
0.0
 11
360.947007
 21
514.083407
 31
0.0
  0
LINE
  5
C2
330
1F
100
AcDbEntity
  8
1
  6
Continuous
 62
   252
370
    18
100
AcDbLine
 10
416.163895
 20
514.083407
 30
0.0
 11
344.163895
 21
514.083407
 31
0.0
  0
LINE
  5
C3
330
1F
100
AcDbEntity
  8
1
  6
Continuous
 62
   252
370
    13
100
AcDbLine
 10
416.163895
 20
502.416741
 30
0.0
 11
344.163895
 21
502.416741
 31
0.0
  0
LINE
  5
C4
330
1F
100
AcDbEntity
  8
1
  6
Continuous
 62
   252
370
    18
100
AcDbLine
 10
415.163895
 20
501.416741
 30
0.0
 11
345.163895
 21
501.416741
 31
0.0
  0
LINE
  5
C5
330
1F
100
AcDbEntity
  8
2
  6
Continuous
 62
    30
370
    18
100
AcDbLine
 10
823.047911
 20
668.416741
 30
0.0
 11
823.047911
 21
704.916741
 31
0.0
  0
LINE
  5
C6
330
1F
100
AcDbEntity
  8
2
  6
Continuous
 62
    30
370
    18
100
AcDbLine
 10
800.047911
 20
704.916741
 30
0.0
 11
800.047911
 21
668.416741
 31
0.0
  0
LINE
  5
C7
330
1F
100
AcDbEntity
  8
2
  6
Continuous
 62
    30
370
    18
100
AcDbLine
 10
800.047911
 20
628.416741
 30
0.0
 11
800.047911
 21
591.916741
 31
0.0
  0
LINE
  5
C8
330
1F
100
AcDbEntity
  8
2
  6
Continuous
 62
    30
370
    18
100
AcDbLine
 10
823.047911
 20
591.916741
 30
0.0
 11
823.047911
 21
628.416741
 31
0.0
  0
LINE
  5
C9
330
1F
100
AcDbEntity
  8
2
  6
Continuous
 62
    30
370
    18
100
AcDbLine
 10
823.047911
 20
628.416741
 30
0.0
 11
823.047911
 21
668.416741
 31
0.0
  0
LINE
  5
CA
330
1F
100
AcDbEntity
  8
2
  6
Continuous
 62
    30
370
    18
100
AcDbLine
 10
800.047911
 20
668.416741
 30
0.0
 11
800.047911
 21
628.416741
 31
0.0
  0
LINE
  5
CB
330
1F
100
AcDbEntity
  8
1
  6
Continuous
 62
    30
370
    18
100
AcDbLine
 10
776.382934
 20
579.708019
 30
0.0
 11
778.638945
 21
569.416741
 31
0.0
  0
LINE
  5
CC
330
1F
100
AcDbEntity
  8
1
  6
Continuous
 62
    30
370
    18
100
AcDbLine
 10
844.456876
 20
569.416741
 30
0.0
 11
846.712888
 21
579.708019
 31
0.0
  0
LINE
  5
CD
330
1F
100
AcDbEntity
  8
1
  6
Continuous
 62
   252
370
    18
100
AcDbLine
 10
826.547911
 20
492.416741
 30
0.0
 11
826.547911
 21
530.416741
 31
0.0
  0
LINE
  5
CE
330
1F
100
AcDbEntity
  8
1
  6
Continuous
 62
   252
370
    18
100
AcDbLine
 10
796.547911
 20
530.416741
 30
0.0
 11
796.547911
 21
492.416741
 31
0.0
  0
LINE
  5
CF
330
1F
100
AcDbEntity
  8
1
  6
Continuous
 62
   252
370
    18
100
AcDbLine
 10
825.547911
 20
491.416741
 30
0.0
 11
826.547911
 21
492.416741
 31
0.0
  0
LINE
  5
D0
330
1F
100
AcDbEntity
  8
1
  6
Continuous
 62
   252
370
    18
100
AcDbLine
 10
796.547911
 20
492.416741
 30
0.0
 11
797.547911
 21
491.416741
 31
0.0
  0
LINE
  5
D1
330
1F
100
AcDbEntity
  8
1
  6
Continuous
 62
   252
370
    18
100
AcDbLine
 10
775.547911
 20
544.083407
 30
0.0
 11
775.547911
 21
532.416741
 31
0.0
  0
LINE
  5
D2
330
1F
100
AcDbEntity
  8
1
  6
Continuous
 62
   252
370
    18
100
AcDbLine
 10
847.547911
 20
532.416741
 30
0.0
 11
847.547911
 21
544.083407
 31
0.0
  0
LINE
  5
D3
330
1F
100
AcDbEntity
  8
2
  6
Continuous
 62
    30
370
    13
100
AcDbLine
 10
823.047911
 20
628.416741
 30
0.0
 11
811.547911
 21
628.416741
 31
0.0
  0
LINE
  5
D4
330
1F
100
AcDbEntity
  8
2
  6
Continuous
 62
    30
370
    13
100
AcDbLine
 10
811.547911
 20
628.416741
 30
0.0
 11
800.047911
 21
628.416741
 31
0.0
  0
LINE
  5
D5
330
1F
100
AcDbEntity
  8
2
  6
Continuous
 62
    30
370
    13
100
AcDbLine
 10
823.047911
 20
668.416741
 30
0.0
 11
811.547911
 21
668.416741
 31
0.0
  0
LINE
  5
D6
330
1F
100
AcDbEntity
  8
2
  6
Continuous
 62
    30
370
    13
100
AcDbLine
 10
811.547911
 20
668.416741
 30
0.0
 11
800.047911
 21
668.416741
 31
0.0
  0
LINE
  5
D7
330
1F
100
AcDbEntity
  8
1
  6
Continuous
 62
    30
370
    13
100
AcDbLine
 10
781.241146
 20
587.916741
 30
0.0
 11
776.352958
 21
587.997386
 31
0.0
  0
LINE
  5
D8
330
1F
100
AcDbEntity
  8
1
  6
Continuous
 62
    30
370
    13
100
AcDbLine
 10
841.854676
 20
587.916741
 30
0.0
 11
846.742863
 21
587.997386
 31
0.0
  0
LINE
  5
D9
330
1F
100
AcDbEntity
  8
1
  6
Continuous
 62
    30
370
    13
100
AcDbLine
 10
781.241146
 20
587.916741
 30
0.0
 11
793.156336
 21
587.916741
 31
0.0
  0
LINE
  5
DA
330
1F
100
AcDbEntity
  8
1
  6
Continuous
 62
    30
370
    13
100
AcDbLine
 10
829.939485
 20
587.916741
 30
0.0
 11
841.854676
 21
587.916741
 31
0.0
  0
LINE
  5
DB
330
1F
100
AcDbEntity
  8
1
  6
Continuous
 62
    30
370
    13
100
AcDbLine
 10
798.127032
 20
588.457281
 30
0.0
 11
793.156336
 21
587.916741
 31
0.0
  0
LINE
  5
DC
330
1F
100
AcDbEntity
  8
1
  6
Continuous
 62
    30
370
    13
100
AcDbLine
 10
824.968789
 20
588.457281
 30
0.0
 11
829.939485
 21
587.916741
 31
0.0
  0
LINE
  5
DD
330
1F
100
AcDbEntity
  8
1
  6
Continuous
 62
    30
370
    18
100
AcDbLine
 10
795.181552
 20
576.416741
 30
0.0
 11
827.914269
 21
576.416741
 31
0.0
  0
LINE
  5
DE
330
1F
100
AcDbEntity
  8
1
  6
Continuous
 62
    30
370
    13
100
AcDbLine
 10
830.745919
 20
570.346085
 30
0.0
 11
792.349903
 21
570.346085
 31
0.0
  0
LINE
  5
DF
330
1F
100
AcDbEntity
  8
1
  6
Continuous
 62
    30
370
    18
100
AcDbLine
 10
778.638945
 20
569.416741
 30
0.0
 11
844.456876
 21
569.416741
 31
0.0
  0
LINE
  5
E0
330
1F
100
AcDbEntity
  8
1
  6
Continuous
 62
    30
370
    13
100
AcDbLine
 10
776.382934
 20
579.708019
 30
0.0
 11
777.672092
 21
579.708019
 31
0.0
  0
LINE
  5
E1
330
1F
100
AcDbEntity
  8
1
  6
Continuous
 62
    30
370
    13
100
AcDbLine
 10
846.712888
 20
579.708019
 30
0.0
 11
845.42373
 21
579.708019
 31
0.0
  0
LINE
  5
E2
330
1F
100
AcDbEntity
  8
1
  6
Continuous
 62
   252
370
    18
100
AcDbLine
 10
825.547911
 20
491.416741
 30
0.0
 11
797.547911
 21
491.416741
 31
0.0
  0
LINE
  5
E3
330
1F
100
AcDbEntity
  8
1
  6
Continuous
 62
   252
370
    18
100
AcDbLine
 10
826.547911
 20
492.416741
 30
0.0
 11
796.547911
 21
492.416741
 31
0.0
  0
LINE
  5
E4
330
1F
100
AcDbEntity
  8
1
  6
Continuous
 62
   252
370
    13
100
AcDbLine
 10
826.547911
 20
530.416741
 30
0.0
 11
796.547911
 21
530.416741
 31
0.0
  0
LINE
  5
E5
330
1F
100
AcDbEntity
  8
1
  6
Continuous
 62
   252
370
    18
100
AcDbLine
 10
784.832536
 20
569.416741
 30
0.0
 11
781.547911
 21
569.416741
 31
0.0
  0
LINE
  5
E6
330
1F
100
AcDbEntity
  8
1
  6
Continuous
 62
   252
370
    18
100
AcDbLine
 10
781.547911
 20
569.416741
 30
0.0
 11
781.547911
 21
544.083407
 31
0.0
  0
LINE
  5
E7
330
1F
100
AcDbEntity
  8
1
  6
Continuous
 62
   252
370
    18
100
AcDbLine
 10
841.547911
 20
569.416741
 30
0.0
 11
838.263285
 21
569.416741
 31
0.0
  0
LINE
  5
E8
330
1F
100
AcDbEntity
  8
1
  6
Continuous
 62
   252
370
    18
100
AcDbLine
 10
841.547911
 20
544.083407
 30
0.0
 11
841.547911
 21
569.416741
 31
0.0
  0
LINE
  5
E9
330
1F
100
AcDbEntity
  8
1
  6
Continuous
 62
   252
370
    18
100
AcDbLine
 10
838.263285
 20
569.416741
 30
0.0
 11
838.263285
 21
544.083407
 31
0.0
  0
LINE
  5
EA
330
1F
100
AcDbEntity
  8
1
  6
Continuous
 62
   252
370
    18
100
AcDbLine
 10
784.832536
 20
544.083407
 30
0.0
 11
784.832536
 21
569.416741
 31
0.0
  0
LINE
  5
EB
330
1F
100
AcDbEntity
  8
1
  6
Continuous
 62
   252
370
    18
100
AcDbLine
 10
814.832536
 20
544.083407
 30
0.0
 11
814.832536
 21
569.416741
 31
0.0
  0
LINE
  5
EC
330
1F
100
AcDbEntity
  8
1
  6
Continuous
 62
   252
370
    18
100
AcDbLine
 10
814.832536
 20
569.416741
 30
0.0
 11
808.263285
 21
569.416741
 31
0.0
  0
LINE
  5
ED
330
1F
100
AcDbEntity
  8
1
  6
Continuous
 62
   252
370
    18
100
AcDbLine
 10
808.263285
 20
569.416741
 30
0.0
 11
808.263285
 21
544.083407
 31
0.0
  0
LINE
  5
EE
330
1F
100
AcDbEntity
  8
1
  6
Continuous
 62
   252
370
    18
100
AcDbLine
 10
847.547911
 20
544.083407
 30
0.0
 11
775.547911
 21
544.083407
 31
0.0
  0
LINE
  5
EF
330
1F
100
AcDbEntity
  8
1
  6
Continuous
 62
   252
370
    13
100
AcDbLine
 10
775.547911
 20
532.416741
 30
0.0
 11
847.547911
 21
532.416741
 31
0.0
  0
LINE
  5
F0
330
1F
100
AcDbEntity
  8
1
  6
Continuous
 62
   252
370
    18
100
AcDbLine
 10
846.547911
 20
531.416741
 30
0.0
 11
776.547911
 21
531.416741
 31
0.0
  0
LINE
  5
F1
330
1F
100
AcDbEntity
  8
2
  6
Continuous
 62
    30
370
    18
100
AcDbLine
 10
343.663895
 20
136.340966
 30
0.0
 11
416.663895
 21
136.340966
 31
0.0
  0
LINE
  5
F2
330
1F
100
AcDbEntity
  8
2
  6
Continuous
 62
    30
370
    18
100
AcDbLine
 10
416.663895
 20
159.340966
 30
0.0
 11
343.663895
 21
159.340966
 31
0.0
  0
LINE
  5
F3
330
1F
100
AcDbEntity
  8
1
  6
Continuous
 62
    30
370
    18
100
AcDbLine
 10
392.163895
 20
160.340966
 30
0.0
 11
391.663895
 21
160.340966
 31
0.0
  0
LINE
  5
F4
330
1F
100
AcDbEntity
  8
1
  6
Continuous
 62
    30
370
    18
100
AcDbLine
 10
368.163895
 20
135.340966
 30
0.0
 11
368.663895
 21
135.340966
 31
0.0
  0
LINE
  5
F5
330
1F
100
AcDbEntity
  8
1
  6
Continuous
 62
    30
370
    13
100
AcDbLine
 10
353.090022
 20
167.106214
 30
0.0
 11
357.163895
 21
164.207324
 31
0.0
  0
LINE
  5
F6
330
1F
100
AcDbEntity
  8
1
  6
Continuous
 62
    30
370
    13
100
AcDbLine
 10
353.090022
 20
128.575718
 30
0.0
 11
357.163895
 21
131.474608
 31
0.0
  0
LINE
  5
F7
330
1F
100
AcDbEntity
  8
1
  6
Continuous
 62
    30
370
    13
100
AcDbLine
 10
357.163895
 20
131.474608
 30
0.0
 11
357.163895
 21
136.341042
 31
0.0
  0
LINE
  5
F8
330
1F
100
AcDbEntity
  8
1
  6
Continuous
 62
    30
370
    13
100
AcDbLine
 10
357.163895
 20
159.34089
 30
0.0
 11
357.163895
 21
164.207324
 31
0.0
  0
LINE
  5
F9
330
1F
100
AcDbEntity
  8
1
  6
Continuous
 62
    30
370
    18
100
AcDbLine
 10
392.163895
 20
160.340966
 30
0.0
 11
392.163895
 21
159.340935
 31
0.0
  0
LINE
  5
FA
330
1F
100
AcDbEntity
  8
1
  6
Continuous
 62
    30
370
    18
100
AcDbLine
 10
368.163895
 20
135.340966
 30
0.0
 11
368.163895
 21
136.340997
 31
0.0
  0
LINE
  5
FB
330
1F
100
AcDbEntity
  8
1
  6
Continuous
 62
    30
370
    18
100
AcDbLine
 10
368.663895
 20
117.534201
 30
0.0
 11
368.663895
 21
136.342094
 31
0.0
  0
LINE
  5
FC
330
1F
100
AcDbEntity
  8
1
  6
Continuous
 62
    30
370
    18
100
AcDbLine
 10
368.663895
 20
159.339839
 30
0.0
 11
368.663895
 21
178.147731
 31
0.0
  0
LINE
  5
FD
330
1F
100
AcDbEntity
  8
1
  6
Continuous
 62
    30
370
    13
100
AcDbLine
 10
372.615508
 20
183.035919
 30
0.0
 11
372.615508
 21
159.340875
 31
0.0
  0
LINE
  5
FE
330
1F
100
AcDbEntity
  8
1
  6
Continuous
 62
    30
370
    13
100
AcDbLine
 10
372.615508
 20
136.341058
 30
0.0
 11
372.615508
 21
112.646013
 31
0.0
  0
LINE
  5
FF
330
1F
100
AcDbEntity
  8
1
  6
Continuous
 62
    30
370
    13
100
AcDbLine
 10
407.237768
 20
128.575718
 30
0.0
 11
403.163895
 21
131.474608
 31
0.0
  0
LINE
  5
100
330
1F
100
AcDbEntity
  8
1
  6
Continuous
 62
    30
370
    13
100
AcDbLine
 10
403.163895
 20
136.341042
 30
0.0
 11
403.163895
 21
131.474608
 31
0.0
  0
LINE
  5
101
330
1F
100
AcDbEntity
  8
1
  6
Continuous
 62
    30
370
    13
100
AcDbLine
 10
403.163895
 20
164.207324
 30
0.0
 11
403.163895
 21
159.34089
 31
0.0
  0
LINE
  5
102
330
1F
100
AcDbEntity
  8
1
  6
Continuous
 62
    30
370
    13
100
AcDbLine
 10
407.237768
 20
167.106214
 30
0.0
 11
403.163895
 21
164.207324
 31
0.0
  0
LINE
  5
103
330
1F
100
AcDbEntity
  8
1
  6
Continuous
 62
    30
370
    18
100
AcDbLine
 10
391.663895
 20
178.147731
 30
0.0
 11
391.663895
 21
159.339839
 31
0.0
  0
LINE
  5
104
330
1F
100
AcDbEntity
  8
1
  6
Continuous
 62
    30
370
    18
100
AcDbLine
 10
391.663895
 20
136.342094
 30
0.0
 11
391.663895
 21
117.534201
 31
0.0
  0
LINE
  5
105
330
1F
100
AcDbEntity
  8
1
  6
Continuous
 62
    30
370
    13
100
AcDbLine
 10
387.712282
 20
112.646013
 30
0.0
 11
387.712282
 21
136.341058
 31
0.0
  0
LINE
  5
106
330
1F
100
AcDbEntity
  8
1
  6
Continuous
 62
    30
370
    13
100
AcDbLine
 10
387.712282
 20
159.340875
 30
0.0
 11
387.712282
 21
183.035919
 31
0.0
  0
ARC
  5
107
330
1F
100
AcDbEntity
  8
2
  6
Continuous
 62
    30
370
    18
100
AcDbCircle
 10
380.163895
 20
598.416741
 30
0.0
 40
48.0
100
AcDbArc
 50
180.0
 51
254.266875
  0
ARC
  5
108
330
1F
100
AcDbEntity
  8
2
  6
Continuous
 62
    30
370
    18
100
AcDbCircle
 10
380.163895
 20
598.416741
 30
0.0
 40
48.0
100
AcDbArc
 50
285.7275
 51
0.0
  0
ARC
  5
109
330
1F
100
AcDbEntity
  8
2
  6
Continuous
 62
    30
370
    18
100
AcDbCircle
 10
380.163895
 20
638.416741
 30
0.0
 40
47.99999999999999
100
AcDbArc
 50
0.0
 51
180.0
  0
ARC
  5
10A
330
1F
100
AcDbEntity
  8
2
  6
Continuous
 62
    30
370
    18
100
AcDbCircle
 10
380.163895
 20
638.416741
 30
0.0
 40
24.99999999999999
100
AcDbArc
 50
0.0
 51
180.0
  0
ARC
  5
10B
330
1F
100
AcDbEntity
  8
1
  6
Continuous
 62
    30
370
    18
100
AcDbCircle
 10
351.935227
 20
541.416741
 30
0.0
 40
5.0
100
AcDbArc
 50
90.0
 51
192.364559
  0
ARC
  5
10C
330
1F
100
AcDbEntity
  8
1
  6
Continuous
 62
    30
370
    18
100
AcDbCircle
 10
408.392563
 20
541.416741
 30
0.0
 40
5.0
100
AcDbArc
 50
347.635441
 51
90.0
  0
ARC
  5
10D
330
1F
100
AcDbEntity
  8
1
  6
Continuous
 62
    30
370
    18
100
AcDbCircle
 10
373.663895
 20
587.72763
 30
0.0
 40
5.0
100
AcDbArc
 50
102.103449
 51
180.0
  0
ARC
  5
10E
330
1F
100
AcDbEntity
  8
1
  6
Continuous
 62
    30
370
    18
100
AcDbCircle
 10
386.663895
 20
587.72763
 30
0.0
 40
5.0
100
AcDbArc
 50
0.0
 51
77.896551
  0
ARC
  5
10F
330
1F
100
AcDbEntity
  8
1
  6
Continuous
 62
    30
370
    18
100
AcDbCircle
 10
380.163895
 20
557.416741
 30
0.0
 40
36.00000000000001
100
AcDbArc
 50
77.896551
 51
102.103449
  0
ARC
  5
110
330
1F
100
AcDbEntity
  8
1
  6
Continuous
 62
   252
370
    18
100
AcDbCircle
 10
364.163895
 20
500.416741
 30
0.0
 40
1.0
100
AcDbArc
 50
0.0
 51
90.0
  0
ARC
  5
111
330
1F
100
AcDbEntity
  8
1
  6
Continuous
 62
   252
370
    18
100
AcDbCircle
 10
396.163895
 20
500.416741
 30
0.0
 40
1.0
100
AcDbArc
 50
90.0
 51
180.0
  0
ARC
  5
112
330
1F
100
AcDbEntity
  8
1
  6
Continuous
 62
   252
370
    18
100
AcDbCircle
 10
345.163895
 20
502.416741
 30
0.0
 40
1.0
100
AcDbArc
 50
180.0
 51
270.0
  0
ARC
  5
113
330
1F
100
AcDbEntity
  8
1
  6
Continuous
 62
   252
370
    18
100
AcDbCircle
 10
415.163895
 20
502.416741
 30
0.0
 40
1.0
100
AcDbArc
 50
270.0
 51
0.0
  0
ARC
  5
114
330
1F
100
AcDbEntity
  8
2
  6
Continuous
 62
    30
370
    18
100
AcDbCircle
 10
380.163895
 20
598.416741
 30
0.0
 40
25.0
100
AcDbArc
 50
297.385313
 51
0.0
  0
ARC
  5
115
330
1F
100
AcDbEntity
  8
2
  6
Continuous
 62
    30
370
    18
100
AcDbCircle
 10
380.163895
 20
598.416741
 30
0.0
 40
25.0
100
AcDbArc
 50
180.0
 51
242.614687
  0
ARC
  5
116
330
1F
100
AcDbEntity
  8
2
  6
Continuous
 62
    30
370
    18
100
AcDbCircle
 10
811.547911
 20
704.916741
 30
0.0
 40
11.5
100
AcDbArc
 50
0.0
 51
180.0
  0
ARC
  5
117
330
1F
100
AcDbEntity
  8
2
  6
Continuous
 62
    30
370
    18
100
AcDbCircle
 10
811.547911
 20
591.916741
 30
0.0
 40
11.5
100
AcDbArc
 50
180.0
 51
0.0
  0
ARC
  5
118
330
1F
100
AcDbEntity
  8
1
  6
Continuous
 62
    30
370
    18
100
AcDbCircle
 10
811.547911
 20
587.416741
 30
0.0
 40
36.00000000000001
100
AcDbArc
 50
0.0
 51
71.373263
  0
ARC
  5
119
330
1F
100
AcDbEntity
  8
1
  6
Continuous
 62
    30
370
    18
100
AcDbCircle
 10
811.547911
 20
587.416741
 30
0.0
 40
36.00000000000001
100
AcDbArc
 50
108.628867
 51
192.364559
  0
ARC
  5
11A
330
1F
100
AcDbEntity
  8
1
  6
Continuous
 62
    30
370
    18
100
AcDbCircle
 10
811.547911
 20
587.416741
 30
0.0
 40
36.00000000000001
100
AcDbArc
 50
347.635441
 51
0.0
  0
ARC
  5
11B
330
1F
100
AcDbEntity
  8
1
  6
Continuous
 62
   252
370
    18
100
AcDbCircle
 10
795.547911
 20
530.416741
 30
0.0
 40
1.0
100
AcDbArc
 50
0.0
 51
90.0
  0
ARC
  5
11C
330
1F
100
AcDbEntity
  8
1
  6
Continuous
 62
   252
370
    18
100
AcDbCircle
 10
827.547911
 20
530.416741
 30
0.0
 40
1.0
100
AcDbArc
 50
90.0
 51
180.0
  0
ARC
  5
11D
330
1F
100
AcDbEntity
  8
1
  6
Continuous
 62
   252
370
    18
100
AcDbCircle
 10
776.547911
 20
532.416741
 30
0.0
 40
1.0
100
AcDbArc
 50
180.0
 51
270.0
  0
ARC
  5
11E
330
1F
100
AcDbEntity
  8
1
  6
Continuous
 62
   252
370
    18
100
AcDbCircle
 10
846.547911
 20
532.416741
 30
0.0
 40
1.0
100
AcDbArc
 50
270.0
 51
0.0
  0
ARC
  5
11F
330
1F
100
AcDbEntity
  8
1
  6
Continuous
 62
    30
370
    18
100
AcDbCircle
 10
811.547911
 20
589.916741
 30
0.0
 40
13.5
100
AcDbArc
 50
353.793732
 51
31.587764
  0
ARC
  5
120
330
1F
100
AcDbEntity
  8
1
  6
Continuous
 62
    30
370
    18
100
AcDbCircle
 10
811.547911
 20
589.916741
 30
0.0
 40
13.5
100
AcDbArc
 50
148.412236
 51
186.206268
  0
ARC
  5
121
330
1F
100
AcDbEntity
  8
1
  6
Continuous
 62
    30
370
    13
100
AcDbCircle
 10
811.547911
 20
589.916741
 30
0.0
 40
18.5
100
AcDbArc
 50
128.434404
 51
186.206268
  0
ARC
  5
122
330
1F
100
AcDbEntity
  8
1
  6
Continuous
 62
    30
370
    13
100
AcDbCircle
 10
811.547911
 20
589.916741
 30
0.0
 40
18.5
100
AcDbArc
 50
353.793732
 51
51.565596
  0
ARC
  5
123
330
1F
100
AcDbEntity
  8
1
  6
Continuous
 62
    30
370
    13
100
AcDbCircle
 10
811.547911
 20
587.416741
 30
0.0
 40
35.19974221833526
100
AcDbArc
 50
109.068864
 51
179.054822
  0
ARC
  5
124
330
1F
100
AcDbEntity
  8
1
  6
Continuous
 62
    30
370
    13
100
AcDbCircle
 10
811.547911
 20
587.416741
 30
0.0
 40
35.19974221833526
100
AcDbArc
 50
0.945178
 51
70.931136
  0
ARC
  5
125
330
1F
100
AcDbEntity
  8
1
  6
Continuous
 62
    30
370
    13
100
AcDbCircle
 10
811.547911
 20
587.416741
 30
0.0
 40
30.31088913245535
100
AcDbArc
 50
0.945178
 51
67.705682
  0
ARC
  5
126
330
1F
100
AcDbEntity
  8
1
  6
Continuous
 62
    30
370
    13
100
AcDbCircle
 10
811.547911
 20
587.416741
 30
0.0
 40
30.31088913245535
100
AcDbArc
 50
112.294318
 51
179.054822
  0
ARC
  5
127
330
1F
100
AcDbEntity
  8
1
  6
Continuous
 62
    30
370
    18
100
AcDbCircle
 10
823.297911
 20
613.669372
 30
0.0
 40
0.75
100
AcDbArc
 50
0.0
 51
109.473747
  0
ARC
  5
128
330
1F
100
AcDbEntity
  8
1
  6
Continuous
 62
    30
370
    18
100
AcDbCircle
 10
823.297911
 20
613.669372
 30
0.0
 40
0.75
100
AcDbArc
 50
250.526253
 51
0.0
  0
ARC
  5
129
330
1F
100
AcDbEntity
  8
1
  6
Continuous
 62
    30
370
    18
100
AcDbCircle
 10
380.163895
 20
147.840966
 30
0.0
 40
33.22866776977872
100
AcDbArc
 50
324.565076
 51
339.752263
  0
ARC
  5
12A
330
1F
100
AcDbEntity
  8
1
  6
Continuous
 62
    30
370
    18
100
AcDbCircle
 10
380.163895
 20
147.840966
 30
0.0
 40
33.22866776977872
100
AcDbArc
 50
20.247737
 51
35.434924
  0
ARC
  5
12B
330
1F
100
AcDbEntity
  8
1
  6
Continuous
 62
    30
370
    18
100
AcDbCircle
 10
380.163895
 20
147.840966
 30
0.0
 40
33.22866776977872
100
AcDbArc
 50
144.565076
 51
159.752263
  0
ARC
  5
12C
330
1F
100
AcDbEntity
  8
1
  6
Continuous
 62
    30
370
    18
100
AcDbCircle
 10
380.163895
 20
147.840966
 30
0.0
 40
33.22866776977872
100
AcDbArc
 50
200.247737
 51
215.434924
  0
ARC
  5
12D
330
1F
100
AcDbEntity
  8
1
  6
Continuous
 62
    30
370
    18
100
AcDbCircle
 10
380.163895
 20
147.840966
 30
0.0
 40
36.00000000000001
100
AcDbArc
 50
270.0
 51
282.139148
  0
ARC
  5
12E
330
1F
100
AcDbEntity
  8
1
  6
Continuous
 62
    30
370
    18
100
AcDbCircle
 10
380.163895
 20
147.840966
 30
0.0
 40
36.00000000000001
100
AcDbArc
 50
77.852099
 51
102.139162
  0
ARC
  5
12F
330
1F
100
AcDbEntity
  8
1
  6
Continuous
 62
    30
370
    18
100
AcDbCircle
 10
380.163895
 20
147.840966
 30
0.0
 40
36.00000000000001
100
AcDbArc
 50
257.852105
 51
270.0
  0
ARC
  5
130
330
1F
100
AcDbEntity
  8
2
  6
Continuous
 62
    30
370
    18
100
AcDbCircle
 10
416.663895
 20
147.840966
 30
0.0
 40
11.5
100
AcDbArc
 50
269.999999
 51
0.0
  0
ARC
  5
131
330
1F
100
AcDbEntity
  8
2
  6
Continuous
 62
    30
370
    18
100
AcDbCircle
 10
416.663895
 20
147.840966
 30
0.0
 40
11.5
100
AcDbArc
 50
0.0
 51
90.000001
  0
ARC
  5
132
330
1F
100
AcDbEntity
  8
2
  6
Continuous
 62
    30
370
    18
100
AcDbCircle
 10
343.663895
 20
147.840966
 30
0.0
 40
11.5
100
AcDbArc
 50
180.0
 51
270.000001
  0
ARC
  5
133
330
1F
100
AcDbEntity
  8
2
  6
Continuous
 62
    30
370
    18
100
AcDbCircle
 10
343.663895
 20
147.840966
 30
0.0
 40
11.5
100
AcDbArc
 50
89.999999
 51
180.0
  0
ARC
  5
134
330
1F
100
AcDbEntity
  8
1
  6
Continuous
 62
    30
370
    13
100
AcDbCircle
 10
380.163895
 20
147.840966
 30
0.0
 40
28.22866776977872
100
AcDbArc
 50
144.565076
 51
155.959619
  0
ARC
  5
135
330
1F
100
AcDbEntity
  8
1
  6
Continuous
 62
    30
370
    13
100
AcDbCircle
 10
380.163895
 20
147.840966
 30
0.0
 40
28.22866776977872
100
AcDbArc
 50
204.040381
 51
215.434924
  0
ARC
  5
136
330
1F
100
AcDbEntity
  8
1
  6
Continuous
 62
    30
370
    13
100
AcDbCircle
 10
380.163895
 20
147.840966
 30
0.0
 40
28.22866776977872
100
AcDbArc
 50
324.565076
 51
335.959619
  0
ARC
  5
137
330
1F
100
AcDbEntity
  8
1
  6
Continuous
 62
    30
370
    13
100
AcDbCircle
 10
380.163895
 20
147.840966
 30
0.0
 40
28.22866776977872
100
AcDbArc
 50
24.040381
 51
35.434924
  0
ARC
  5
138
330
1F
100
AcDbEntity
  8
1
  6
Continuous
 62
   252
370
    18
100
AcDbCircle
 10
380.163895
 20
147.840966
 30
0.0
 40
36.00000000000001
100
AcDbArc
 50
282.960001
 51
341.37
  0
ARC
  5
139
330
1F
100
AcDbEntity
  8
1
  6
Continuous
 62
   252
370
    18
100
AcDbCircle
 10
380.163895
 20
147.840966
 30
0.0
 40
36.00000000000001
100
AcDbArc
 50
198.624374
 51
257.85
  0
ARC
  5
13A
330
1F
100
AcDbEntity
  8
1
  6
Continuous
 62
   252
370
    18
100
AcDbCircle
 10
380.163895
 20
147.840966
 30
0.0
 40
36.00000000000001
100
AcDbArc
 50
102.988126
 51
161.375626
  0
ARC
  5
13B
330
1F
100
AcDbEntity
  8
1
  6
Continuous
 62
   252
370
    18
100
AcDbCircle
 10
380.163895
 20
147.840966
 30
0.0
 40
36.00000000000001
100
AcDbArc
 50
18.63
 51
77.855625
  0
ELLIPSE
  5
13C
330
1F
100
AcDbEntity
  8
1
  6
Continuous
 62
    30
370
    13
100
AcDbEllipse
 10
372.039984
 20
550.778675
 30
0.0
 11
-4.507905680282345
 21
2.163050248532886
 31
0.0
210
0.0
220
0.0
230
1.0
 40
0.309638
 41
0.0
 42
1.426663246493423
  0
ELLIPSE
  5
13D
330
1F
100
AcDbEntity
  8
1
  6
Continuous
 62
    30
370
    13
100
AcDbEllipse
 10
373.663895
 20
557.916741
 30
0.0
 11
-5.0
 21
0.0
 31
0.0
210
0.0
220
0.0
230
1.0
 40
0.016496
 41
4.923634014025994
 42
6.283185307179586
  0
ELLIPSE
  5
13E
330
1F
100
AcDbEntity
  8
1
  6
Continuous
 62
    30
370
    13
100
AcDbEllipse
 10
388.287806
 20
550.778675
 30
0.0
 11
-4.507905680282343
 21
-2.163050248532889
 31
0.0
210
0.0
220
0.0
230
1.0
 40
0.309638
 41
1.71492940709637
 42
3.141592653589793
  0
ELLIPSE
  5
13F
330
1F
100
AcDbEntity
  8
1
  6
Continuous
 62
    30
370
    13
100
AcDbEllipse
 10
386.663895
 20
557.916741
 30
0.0
 11
5.0
 21
0.0
 31
0.0
210
0.0
220
0.0
230
1.0
 40
0.016496
 41
0.0
 42
1.359551293153592
  0
ELLIPSE
  5
140
330
1F
100
AcDbEntity
  8
1
  6
Continuous
 62
    30
370
    13
100
AcDbEllipse
 10
357.163895
 20
541.416741
 30
0.0
 11
0.0
 21
-5.0
 31
0.0
210
0.0
220
0.0
230
1.0
 40
0.814775
 41
3.141592653589793
 42
4.928191247395009
  0
ELLIPSE
  5
141
330
1F
100
AcDbEntity
  8
1
  6
Continuous
 62
    30
370
    13
100
AcDbEllipse
 10
403.163895
 20
541.416741
 30
0.0
 11
0.0
 21
-5.0
 31
0.0
210
0.0
220
0.0
230
1.0
 40
0.814775
 41
1.354994059784577
 42
3.141592653589793
  0
ELLIPSE
  5
142
330
1F
100
AcDbEntity
  8
1
  6
Continuous
 62
    30
370
    13
100
AcDbEllipse
 10
782.377067
 20
580.778675
 30
0.0
 11
-4.70265177901132
 21
-1.698548275840773
 31
0.0
210
0.0
220
0.0
230
1.0
 40
0.411349
 41
4.564892953072292
 42
5.991556199565718
  0
ELLIPSE
  5
143
330
1F
100
AcDbEntity
  8
1
  6
Continuous
 62
    30
370
    13
100
AcDbEllipse
 10
840.718755
 20
580.778675
 30
0.0
 11
-4.702651779011316
 21
1.698548275840784
 31
0.0
210
0.0
220
0.0
230
1.0
 40
0.411349
 41
3.433221761203669
 42
4.859885007697089
  0
ELLIPSE
  5
144
330
1F
100
AcDbEntity
  8
1
  6
Continuous
 62
    30
370
    13
100
AcDbEllipse
 10
827.914269
 20
571.416741
 30
0.0
 11
0.0
 21
-5.0
 31
0.0
210
0.0
220
0.0
230
1.0
 40
0.579778
 41
1.354994059784577
 42
3.141592653589793
  0
ELLIPSE
  5
145
330
1F
100
AcDbEntity
  8
1
  6
Continuous
 62
    30
370
    13
100
AcDbEllipse
 10
795.181552
 20
571.416741
 30
0.0
 11
0.0
 21
-5.0
 31
0.0
210
0.0
220
0.0
230
1.0
 40
0.579778
 41
3.141592653589793
 42
4.928191247395009
  0
ELLIPSE
  5
146
330
1F
100
AcDbEntity
  8
1
  6
Continuous
 62
    30
370
    13
100
AcDbEllipse
 10
372.039984
 20
177.01181
 30
0.0
 11
-3.006993022250199
 21
3.994745669518727
 31
0.0
210
0.0
220
0.0
230
1.0
 40
0.857273
 41
0.0003602869046091
 42
0.9977316831790706
  0
ELLIPSE
  5
147
330
1F
100
AcDbEntity
  8
1
  6
Continuous
 62
    30
370
    13
100
AcDbEllipse
 10
388.287806
 20
177.01181
 30
0.0
 11
-3.006993022250211
 21
-3.994745669518719
 31
0.0
210
0.0
220
0.0
230
1.0
 40
0.857273
 41
2.143860970410725
 42
3.140296141804293
  0
ELLIPSE
  5
148
330
1F
100
AcDbEntity
  8
1
  6
Continuous
 62
    30
370
    13
100
AcDbEllipse
 10
388.287806
 20
118.670122
 30
0.0
 11
3.006993022250209
 21
-3.99474566951872
 31
0.0
210
0.0
220
0.0
230
1.0
 40
0.857273
 41
0.0003602869046109
 42
0.9977316831790688
  0
ELLIPSE
  5
149
330
1F
100
AcDbEntity
  8
1
  6
Continuous
 62
    30
370
    13
100
AcDbEllipse
 10
372.039984
 20
118.670122
 30
0.0
 11
3.006993022250219
 21
3.994745669518711
 31
0.0
210
0.0
220
0.0
230
1.0
 40
0.857273
 41
2.143860970410726
 42
3.140296141804295
  0
ELLIPSE
  5
14A
330
1F
100
AcDbEntity
  8
1
  6
Continuous
 62
    30
370
    18
100
AcDbEllipse
 10
386.663895
 20
178.147731
 30
0.0
 11
5.0
 21
0.0
 31
0.0
210
0.0
220
0.0
230
1.0
 40
0.999864
 41
0.0
 42
0.1325349279656806
  0
ELLIPSE
  5
14B
330
1F
100
AcDbEntity
  8
1
  6
Continuous
 62
    30
370
    13
100
AcDbEllipse
 10
386.663895
 20
178.147731
 30
0.0
 11
5.0
 21
0.0
 31
0.0
210
0.0
220
0.0
230
1.0
 40
0.999864
 41
0.1325349824970738
 42
1.359551293153592
  0
ELLIPSE
  5
14C
330
1F
100
AcDbEntity
  8
1
  6
Continuous
 62
    30
370
    18
100
AcDbEllipse
 10
386.663895
 20
117.534201
 30
0.0
 11
5.0
 21
0.0
 31
0.0
210
0.0
220
0.0
230
1.0
 40
0.999864
 41
6.174208737989016
 42
6.283185307179585
  0
ELLIPSE
  5
14D
330
1F
100
AcDbEntity
  8
1
  6
Continuous
 62
    30
370
    13
100
AcDbEllipse
 10
386.663895
 20
117.534201
 30
0.0
 11
5.0
 21
0.0
 31
0.0
210
0.0
220
0.0
230
1.0
 40
0.999864
 41
4.923634014025994
 42
6.174208683457573
  0
ELLIPSE
  5
14E
330
1F
100
AcDbEntity
  8
1
  6
Continuous
 62
    30
370
    18
100
AcDbEllipse
 10
373.663895
 20
117.534201
 30
0.0
 11
-5.0
 21
0.0
 31
0.0
210
0.0
220
0.0
230
1.0
 40
0.999864
 41
0.0
 42
0.1325349279656806
  0
ELLIPSE
  5
14F
330
1F
100
AcDbEntity
  8
1
  6
Continuous
 62
    30
370
    13
100
AcDbEllipse
 10
373.663895
 20
117.534201
 30
0.0
 11
-5.0
 21
0.0
 31
0.0
210
0.0
220
0.0
230
1.0
 40
0.999864
 41
0.1325349824970738
 42
1.359551293153592
  0
ELLIPSE
  5
150
330
1F
100
AcDbEntity
  8
1
  6
Continuous
 62
    30
370
    18
100
AcDbEllipse
 10
373.663895
 20
178.147731
 30
0.0
 11
-5.0
 21
0.0
 31
0.0
210
0.0
220
0.0
230
1.0
 40
0.999864
 41
6.174208737989016
 42
6.283185307179585
  0
ELLIPSE
  5
151
330
1F
100
AcDbEntity
  8
1
  6
Continuous
 62
    30
370
    13
100
AcDbEllipse
 10
373.663895
 20
178.147731
 30
0.0
 11
-5.0
 21
0.0
 31
0.0
210
0.0
220
0.0
230
1.0
 40
0.999864
 41
4.923634014025994
 42
6.174208683457573
  0
SPLINE
  5
152
330
1F
100
AcDbEntity
  8
1
  6
Continuous
 62
    30
370
    18
100
AcDbSpline
210
0.0
220
0.0
230
1.0
 70
     8
 71
     3
 72
    21
 73
    17
 74
     0
 42
0.000000001
 43
0.0000000001
 40
0.0
 40
0.0
 40
0.0
 40
0.0
 40
0.2500000000000013
 40
0.2500000000000013
 40
0.3750000000000036
 40
0.3750000000000036
 40
0.5000000000000058
 40
0.5000000000000058
 40
0.5625000000000084
 40
0.5937500000000095
 40
0.5937500000000095
 40
0.6250000000000108
 40
0.6250000000000108
 40
0.7500000000000072
 40
0.8750000000000036
 40
1.0
 40
1.0
 40
1.0
 40
1.0
 10
367.5320779003903
 20
552.9417250265191
 30
0.0
 10
367.7070669229799
 20
553.3064109645613
 30
0.0
 10
367.8646485022438
 20
553.6839971583486
 30
0.0
 10
368.0726064654668
 20
554.2707740467265
 30
0.0
 10
368.1371804611225
 20
554.4697740530402
 30
0.0
 10
368.2563095420796
 20
554.8748806799571
 30
0.0
 10
368.3108657366254
 20
555.0809865293934
 30
0.0
 10
368.3846931533378
 20
555.3957684708262
 30
0.0
 10
368.4196034624202
 20
555.5545665218795
 30
0.0
 10
368.4513986490609
 20
555.7155435532993
 30
0.0
 10
368.4718895795216
 20
555.8233544320069
 30
0.0
 10
368.4817902249951
 20
555.8775526370938
 30
0.0
 10
368.5293995245527
 20
556.1492563718698
 30
0.0
 10
368.5930571359593
 20
556.5860917194605
 30
0.0
 10
368.6508465394703
 20
557.2476706782163
 30
0.0
 10
368.6638948357409
 20
557.6929892271011
 30
0.0
 10
368.6638948357409
 20
557.9167405981447
 30
0.0
  0
SPLINE
  5
153
330
1F
100
AcDbEntity
  8
1
  6
Continuous
 62
    30
370
    18
100
AcDbSpline
210
0.0
220
0.0
230
1.0
 70
     8
 71
     3
 72
    22
 73
    18
 74
     0
 42
0.000000001
 43
0.0000000001
 40
0.0
 40
0.0
 40
0.0
 40
0.0
 40
0.1249999999999959
 40
0.1249999999999959
 40
0.2499999999999918
 40
0.3749999999999877
 40
0.4999999999999836
 40
0.4999999999999836
 40
0.5624999999999817
 40
0.5624999999999817
 40
0.5937499999999827
 40
0.5937499999999827
 40
0.6249999999999837
 40
0.6249999999999837
 40
0.7499999999999902
 40
0.7499999999999902
 40
1.0
 40
1.0
 40
1.0
 40
1.0
 10
391.663894835741
 20
557.9167405981447
 30
0.0
 10
391.663894835741
 20
557.6934814383014
 30
0.0
 10
391.6703896567972
 20
557.4718030701005
 30
0.0
 10
391.6958972349785
 20
557.0314938917536
 30
0.0
 10
391.7339237872773
 20
556.594232555519
 30
0.0
 10
391.8275427463925
 20
555.9472667088098
 30
0.0
 10
391.9139407426035
 20
555.5218346738427
 30
0.0
 10
391.9876689918287
 20
555.2049632737949
 30
0.0
 10
392.0137684720355
 20
555.0995866380869
 30
0.0
 10
392.0549440002487
 20
554.942832407744
 30
0.0
 10
392.0690111392811
 20
554.8907774867815
 30
0.0
 10
392.0978215390516
 20
554.7870571027094
 30
0.0
 10
392.1125680484387
 20
554.7353818210597
 30
0.0
 10
392.1878325655652
 20
554.4784363804072
 30
0.0
 10
392.2530391618976
 20
554.2770886536064
 30
0.0
 10
392.4626158104946
 20
553.6849586478183
 30
0.0
 10
392.6208975054822
 20
553.3060467622113
 30
0.0
 10
392.7957117710915
 20
552.9417250265191
 30
0.0
  0
SPLINE
  5
154
330
1F
100
AcDbEntity
  8
1
  6
Continuous
 62
    30
370
    13
100
AcDbSpline
210
0.0
220
0.0
230
1.0
 70
     8
 71
     3
 72
    21
 73
    17
 74
     0
 42
0.000000001
 43
0.0000000001
 40
0.0
 40
0.0
 40
0.0
 40
0.0
 40
0.1250000000000014
 40
0.2500000000000029
 40
0.3750000000000043
 40
0.3750000000000043
 40
0.4062500000000048
 40
0.4062500000000048
 40
0.4375000000000053
 40
0.5000000000000058
 40
0.5000000000000058
 40
0.6250000000000043
 40
0.6250000000000043
 40
0.7500000000000029
 40
0.8750000000000014
 40
1.0
 40
1.0
 40
1.0
 40
1.0
 10
372.6155077389667
 20
557.997385759435
 30
0.0
 10
372.6155077389667
 20
557.6316375315666
 30
0.0
 10
372.5945819676714
 20
556.9027906790836
 30
0.0
 10
372.5014551666019
 20
555.8173387961338
 30
0.0
 10
372.3984955602616
 20
555.098887647599
 30
0.0
 10
372.3213378620654
 20
554.6514841105718
 30
0.0
 10
372.3052621698582
 20
554.5620745172826
 30
0.0
 10
372.2719411830438
 20
554.3840045354797
 30
0.0
 10
372.2201681870358
 20
554.1178022977275
 30
0.0
 10
372.1630866929228
 20
553.8542779790738
 30
0.0
 10
372.042001409765
 20
553.3307303745013
 30
0.0
 10
371.9520541349357
 20
552.9863633317574
 30
0.0
 10
371.7543847609664
 20
552.3066754173803
 30
0.0
 10
371.5389392572846
 20
551.6360343265586
 30
0.0
 10
371.1639163091217
 20
550.6566711967369
 30
0.0
 10
370.8800049993613
 20
550.0213136381713
 30
0.0
 10
370.7296753137261
 20
549.7080190005412
 30
0.0
  0
SPLINE
  5
155
330
1F
100
AcDbEntity
  8
1
  6
Continuous
 62
    30
370
    13
100
AcDbSpline
210
0.0
220
0.0
230
1.0
 70
     8
 71
     3
 72
    22
 73
    18
 74
     0
 42
0.000000001
 43
0.0000000001
 40
0.0
 40
0.0
 40
0.0
 40
0.0
 40
0.124999999999997
 40
0.249999999999994
 40
0.249999999999994
 40
0.374999999999991
 40
0.374999999999991
 40
0.4062499999999902
 40
0.4062499999999902
 40
0.4374999999999894
 40
0.4999999999999897
 40
0.4999999999999897
 40
0.6249999999999923
 40
0.7499999999999949
 40
0.8749999999999974
 40
0.8749999999999974
 40
1.0
 40
1.0
 40
1.0
 40
1.0
 10
389.5981143577557
 20
549.7080190005412
 30
0.0
 10
389.4476950943789
 20
550.0215003226973
 30
0.0
 10
389.1630242740013
 20
550.6584928742421
 30
0.0
 10
388.9114823073073
 20
551.3158016357105
 30
0.0
 10
388.6770500899814
 20
551.9834999283479
 30
0.0
 10
388.5683877839654
 20
552.3225432430507
 30
0.0
 10
388.443702221529
 20
552.753058066378
 30
0.0
 10
388.4193201576674
 20
552.8395107189233
 30
0.0
 10
388.3718315515277
 20
553.012540090118
 30
0.0
 10
388.3024518400456
 20
553.2724739749096
 30
0.0
 10
388.2386183401197
 20
553.5335728464772
 30
0.0
 10
388.1183265703238
 20
554.05731578977
 30
0.0
 10
387.9775937642057
 20
554.7597575845143
 30
0.0
 10
387.8255549861233
 20
555.8257422142591
 30
0.0
 10
387.7639973015019
 20
556.5446792940156
 30
0.0
 10
387.7227506580325
 20
557.2678358028567
 30
0.0
 10
387.7122819325152
 20
557.6315235684324
 30
0.0
 10
387.7122819325152
 20
557.997385759435
 30
0.0
  0
SPLINE
  5
156
330
1F
100
AcDbEntity
  8
1
  6
Continuous
 62
    30
370
    18
100
AcDbSpline
210
0.0
220
0.0
230
1.0
 70
    24
 71
     3
 72
     8
 73
     4
 74
     0
 42
0.000000001
 43
0.0000000001
 40
0.0
 40
0.0
 40
0.0
 40
0.0
 40
1.0
 40
1.0
 40
1.0
 40
1.0
 10
368.163894835741
 20
577.4341552603327
 30
0.0
 10
368.163894835741
 20
577.5110214823978
 30
0.0
 10
368.163894835741
 20
577.587887704463
 30
0.0
 10
368.163894835741
 20
577.6647539265283
 30
0.0
  0
SPLINE
  5
157
330
1F
100
AcDbEntity
  8
1
  6
Continuous
 62
    30
370
    18
100
AcDbSpline
210
0.0
220
0.0
230
1.0
 70
    24
 71
     3
 72
     8
 73
     4
 74
     0
 42
0.000000001
 43
0.0000000001
 40
0.0
 40
0.0
 40
0.0
 40
0.0
 40
1.0
 40
1.0
 40
1.0
 40
1.0
 10
368.163894835741
 20
577.6647539265283
 30
0.0
 10
368.163894835741
 20
577.7075392598616
 30
0.0
 10
368.163894835741
 20
577.7503245931949
 30
0.0
 10
368.163894835741
 20
577.7931099265284
 30
0.0
  0
SPLINE
  5
158
330
1F
100
AcDbEntity
  8
1
  6
Continuous
 62
    30
370
    18
100
AcDbSpline
210
0.0
220
0.0
230
1.0
 70
    24
 71
     3
 72
     8
 73
     4
 74
     0
 42
0.000000001
 43
0.0000000001
 40
0.0
 40
0.0
 40
0.0
 40
0.0
 40
1.0
 40
1.0
 40
1.0
 40
1.0
 10
392.163894835741
 20
584.3698862040994
 30
0.0
 10
392.163894835741
 20
584.3697861649969
 30
0.0
 10
392.163894835741
 20
584.3696861258943
 30
0.0
 10
392.163894835741
 20
584.3695860867919
 30
0.0
  0
SPLINE
  5
159
330
1F
100
AcDbEntity
  8
1
  6
Continuous
 62
    30
370
    18
100
AcDbSpline
210
0.0
220
0.0
230
1.0
 70
    24
 71
     3
 72
     8
 73
     4
 74
     0
 42
0.000000001
 43
0.0000000001
 40
0.0
 40
0.0
 40
0.0
 40
0.0
 40
1.0
 40
1.0
 40
1.0
 40
1.0
 10
392.163894835741
 20
584.3688117969366
 30
0.0
 10
392.163894835741
 20
584.3687064252592
 30
0.0
 10
392.163894835741
 20
584.368601053582
 30
0.0
 10
392.163894835741
 20
584.3684956819047
 30
0.0
  0
SPLINE
  5
15A
330
1F
100
AcDbEntity
  8
1
  6
Continuous
 62
    30
370
    18
100
AcDbSpline
210
0.0
220
0.0
230
1.0
 70
    24
 71
     3
 72
     8
 73
     4
 74
     0
 42
0.000000001
 43
0.0000000001
 40
0.0
 40
0.0
 40
0.0
 40
0.0
 40
1.0
 40
1.0
 40
1.0
 40
1.0
 10
392.163894835741
 20
584.3677175525955
 30
0.0
 10
392.163894835741
 20
584.3676113277063
 30
0.0
 10
392.163894835741
 20
584.3675051028171
 30
0.0
 10
392.163894835741
 20
584.3673988779278
 30
0.0
  0
SPLINE
  5
15B
330
1F
100
AcDbEntity
  8
1
  6
Continuous
 62
    30
370
    18
100
AcDbSpline
210
0.0
220
0.0
230
1.0
 70
    24
 71
     3
 72
     8
 73
     4
 74
     0
 42
0.000000001
 43
0.0000000001
 40
0.0
 40
0.0
 40
0.0
 40
0.0
 40
1.0
 40
1.0
 40
1.0
 40
1.0
 10
392.163894835741
 20
584.3673988779278
 30
0.0
 10
392.163894835741
 20
584.2524892112611
 30
0.0
 10
392.163894835741
 20
584.1375795445946
 30
0.0
 10
392.163894835741
 20
584.0226698779279
 30
0.0
  0
SPLINE
  5
15C
330
1F
100
AcDbEntity
  8
1
  6
Continuous
 62
    30
370
    18
100
AcDbSpline
210
0.0
220
0.0
230
1.0
 70
    24
 71
     3
 72
    12
 73
     8
 74
     0
 42
0.000000001
 43
0.0000000001
 40
0.0
 40
0.0
 40
0.0
 40
0.0
 40
0.1604182943713783
 40
0.1604182943713783
 40
0.875121044246152
 40
0.875121044246152
 40
1.0
 40
1.0
 40
1.0
 40
1.0
 10
392.163894835741
 20
583.9928756990744
 30
0.0
 10
392.163894835741
 20
583.9927993979967
 30
0.0
 10
392.163894835741
 20
583.9803271211199
 30
0.0
 10
392.163894835741
 20
583.8454622457937
 30
0.0
 10
392.163894835741
 20
583.5857462527935
 30
0.0
 10
392.163894835741
 20
583.1067218501793
 30
0.0
 10
392.163894835741
 20
583.0331469564842
 30
0.0
 10
392.163894835741
 20
582.9572536990736
 30
0.0
  0
SPLINE
  5
15D
330
1F
100
AcDbEntity
  8
1
  6
Continuous
 62
    30
370
    18
100
AcDbSpline
210
0.0
220
0.0
230
1.0
 70
    24
 71
     3
 72
     8
 73
     4
 74
     0
 42
0.000000001
 43
0.0000000001
 40
0.0
 40
0.0
 40
0.0
 40
0.0
 40
1.0
 40
1.0
 40
1.0
 40
1.0
 10
368.163894835741
 20
577.8238052968551
 30
0.0
 10
368.163894835741
 20
577.8568591195481
 30
0.0
 10
368.163894835741
 20
577.9714718450048
 30
0.0
 10
368.163894835741
 20
578.1686019216643
 30
0.0
  0
SPLINE
  5
15E
330
1F
100
AcDbEntity
  8
1
  6
Continuous
 62
    30
370
    18
100
AcDbSpline
210
0.0
220
0.0
230
1.0
 70
    24
 71
     3
 72
     8
 73
     4
 74
     0
 42
0.000000001
 43
0.0000000001
 40
0.0
 40
0.0
 40
0.0
 40
0.0
 40
1.0
 40
1.0
 40
1.0
 40
1.0
 10
392.163894835741
 20
582.8905527091176
 30
0.0
 10
392.163894835741
 20
582.8906710173704
 30
0.0
 10
392.163894835741
 20
582.8505524716993
 30
0.0
 10
392.163894835741
 20
582.770043230909
 30
0.0
  0
SPLINE
  5
15F
330
1F
100
AcDbEntity
  8
1
  6
Continuous
 62
    30
370
    18
100
AcDbSpline
210
0.0
220
0.0
230
1.0
 70
    24
 71
     3
 72
     8
 73
     4
 74
     0
 42
0.000000001
 43
0.0000000001
 40
0.0
 40
0.0
 40
0.0
 40
0.0
 40
1.0
 40
1.0
 40
1.0
 40
1.0
 10
392.163894835741
 20
582.770043230909
 30
0.0
 10
392.163894835741
 20
582.6686748779944
 30
0.0
 10
392.163894835741
 20
582.5233525165022
 30
0.0
 10
392.163894835741
 20
582.3342712309089
 30
0.0
  0
SPLINE
  5
160
330
1F
100
AcDbEntity
  8
1
  6
Continuous
 62
    30
370
    18
100
AcDbSpline
210
0.0
220
0.0
230
1.0
 70
    24
 71
     3
 72
    10
 73
     6
 74
     0
 42
0.000000001
 43
0.0000000001
 40
0.0
 40
0.0
 40
0.0
 40
0.0
 40
0.5433519325092895
 40
0.5433519325092895
 40
1.0
 40
1.0
 40
1.0
 40
1.0
 10
368.1638948357409
 20
582.3345544428694
 30
0.0
 10
368.1638948357409
 20
582.5313997477763
 30
0.0
 10
368.163894835741
 20
582.6789129030478
 30
0.0
 10
368.163894835741
 20
582.860117379935
 30
0.0
 10
368.163894835741
 20
582.90130211496
 30
0.0
 10
368.163894835741
 20
582.9010766007
 30
0.0
  0
SPLINE
  5
161
330
1F
100
AcDbEntity
  8
1
  6
Continuous
 62
    30
370
    18
100
AcDbSpline
210
0.0
220
0.0
230
1.0
 70
    24
 71
     3
 72
    10
 73
     6
 74
     0
 42
0.000000001
 43
0.0000000001
 40
0.0
 40
0.0
 40
0.0
 40
0.0
 40
0.3294987674609657
 40
0.3294987674609657
 40
1.0
 40
1.0
 40
1.0
 40
1.0
 10
368.163894835741
 20
578.1686019216643
 30
0.0
 10
368.163894835741
 20
578.3669212307187
 30
0.0
 10
368.163894835741
 20
578.7045219804451
 30
0.0
 10
368.163894835741
 20
580.1518178051699
 30
0.0
 10
368.163894835741
 20
581.1222314394965
 30
0.0
 10
368.163894835741
 20
582.0926450738231
 30
0.0
  0
SPLINE
  5
162
330
1F
100
AcDbEntity
  8
1
  6
Continuous
 62
    30
370
    18
100
AcDbSpline
210
0.0
220
0.0
230
1.0
 70
    24
 71
     3
 72
     8
 73
     4
 74
     0
 42
0.000000001
 43
0.0000000001
 40
0.0
 40
0.0
 40
0.0
 40
0.0
 40
1.0
 40
1.0
 40
1.0
 40
1.0
 10
368.163894835741
 20
582.0926450738231
 30
0.0
 10
368.163894835741
 20
582.163410516888
 30
0.0
 10
368.163894835741
 20
582.2341759599531
 30
0.0
 10
368.163894835741
 20
582.304941403018
 30
0.0
  0
SPLINE
  5
163
330
1F
100
AcDbEntity
  8
1
  6
Continuous
 62
    30
370
    18
100
AcDbSpline
210
0.0
220
0.0
230
1.0
 70
    24
 71
     3
 72
     8
 73
     4
 74
     0
 42
0.000000001
 43
0.0000000001
 40
0.0
 40
0.0
 40
0.0
 40
0.0
 40
1.0
 40
1.0
 40
1.0
 40
1.0
 10
392.163894835741
 20
582.0905621919795
 30
0.0
 10
392.163894835741
 20
580.5384265480973
 30
0.0
 10
392.163894835741
 20
578.9862909042149
 30
0.0
 10
392.163894835741
 20
577.4341552603327
 30
0.0
  0
SPLINE
  5
164
330
1F
100
AcDbEntity
  8
1
  6
Continuous
 62
    30
370
    18
100
AcDbSpline
210
0.0
220
0.0
230
1.0
 70
    24
 71
     3
 72
     8
 73
     4
 74
     0
 42
0.000000001
 43
0.0000000001
 40
0.0
 40
0.0
 40
0.0
 40
0.0
 40
1.0
 40
1.0
 40
1.0
 40
1.0
 10
392.163894835741
 20
582.3005030609952
 30
0.0
 10
392.163894835741
 20
582.2305227713233
 30
0.0
 10
392.163894835741
 20
582.1605424816514
 30
0.0
 10
392.163894835741
 20
582.0905621919795
 30
0.0
  0
SPLINE
  5
165
330
1F
100
AcDbEntity
  8
1
  6
Continuous
 62
    30
370
    18
100
AcDbSpline
210
0.0
220
0.0
230
1.0
 70
     8
 71
     3
 72
    47
 73
    43
 74
     0
 42
0.000000001
 43
0.0000000001
 40
0.0
 40
0.0
 40
0.0
 40
0.0
 40
0.1250000000000024
 40
0.1250000000000024
 40
0.1875000000000034
 40
0.1875000000000034
 40
0.2500000000000043
 40
0.2500000000000043
 40
0.3125000000000053
 40
0.3125000000000053
 40
0.3750000000000063
 40
0.3750000000000063
 40
0.3906250000000062
 40
0.3906250000000062
 40
0.406250000000006
 40
0.406250000000006
 40
0.4375000000000054
 40
0.4375000000000054
 40
0.5000000000000042
 40
0.5000000000000042
 40
0.562500000000003
 40
0.562500000000003
 40
0.6250000000000018
 40
0.6250000000000018
 40
0.6562500000000009
 40
0.6562500000000009
 40
0.6718750000000008
 40
0.6718750000000008
 40
0.6796875000000004
 40
0.6796875000000004
 40
0.6875000000000002
 40
0.7499999999999999
 40
0.7499999999999999
 40
0.8124999999999997
 40
0.8124999999999997
 40
0.8749999999999994
 40
0.8749999999999994
 40
0.9062499999999994
 40
0.9062499999999994
 40
0.9374999999999993
 40
0.9374999999999993
 40
1.0
 40
1.0
 40
1.0
 40
1.0
 10
357.163894835741
 20
546.4167405981447
 30
0.0
 10
357.5091777184773
 20
546.4167405981447
 30
0.0
 10
357.8758519222845
 20
546.4321973321174
 30
0.0
 10
358.4572462994506
 20
546.4880422373556
 30
0.0
 10
358.6562753734675
 20
546.5121177308071
 30
0.0
 10
359.0646612593182
 20
546.5730326761914
 30
0.0
 10
359.2740189024307
 20
546.6098701935161
 30
0.0
 10
359.7028921805464
 20
546.6983880271582
 30
0.0
 10
359.9224089940222
 20
546.7500658516803
 30
0.0
 10
360.3713644371617
 20
546.8706478948072
 30
0.0
 10
360.6008047693358
 20
546.9395488548683
 30
0.0
 10
360.8935906650589
 20
547.0381751113932
 30
0.0
 10
360.9524467740574
 20
547.0585264641161
 30
0.0
 10
361.0707498926499
 20
547.1005294531067
 30
0.0
 10
361.1301961551371
 20
547.1221820630303
 30
0.0
 10
361.3088159166047
 20
547.1889360822886
 30
0.0
 10
361.4284633669694
 20
547.2359006517107
 30
0.0
 10
361.7888611813139
 20
547.3845407719997
 30
0.0
 10
362.0310740639194
 20
547.4939576448156
 30
0.0
 10
362.5179239976187
 20
547.735473001957
 30
0.0
 10
362.7625631228988
 20
547.8675701126475
 30
0.0
 10
363.2525474685903
 20
548.1566574451838
 30
0.0
 10
363.4978953335661
 20
548.3136458046472
 30
0.0
 10
363.8649179234478
 20
548.5696267356811
 30
0.0
 10
363.9870895035444
 20
548.6583720514795
 30
0.0
 10
364.1698734778752
 20
548.7968663297615
 30
0.0
 10
364.2307223593203
 20
548.8439272911639
 30
0.0
 10
364.3218475697344
 20
548.9158955936047
 30
0.0
 10
364.3521947914696
 20
548.9401123974685
 30
0.0
 10
364.4126964781472
 20
548.9888973616315
 30
0.0
 10
364.6842414054789
 20
549.2101327802725
 30
0.0
 10
364.9491984165122
 20
549.4467275807222
 30
0.0
 10
365.4074470523577
 20
549.8920337990156
 30
0.0
 10
365.6301801969937
 20
550.1270313478393
 30
0.0
 10
366.0603576521625
 20
550.6221873302272
 30
0.0
 10
366.2678047384519
 20
550.8823426083163
 30
0.0
 10
366.5654835788361
 20
551.2918925429286
 30
0.0
 10
366.6624594327092
 20
551.4316299757558
 30
0.0
 10
366.8515454105532
 20
551.717642637333
 30
0.0
 10
366.9436705800891
 20
551.8639425630109
 30
0.0
 10
367.2120750138519
 20
552.3126719187245
 30
0.0
 10
367.3787260163132
 20
552.6221319750946
 30
0.0
 10
367.5320779003903
 20
552.941725026519
 30
0.0
  0
SPLINE
  5
166
330
1F
100
AcDbEntity
  8
1
  6
Continuous
 62
    30
370
    13
100
AcDbSpline
210
0.0
220
0.0
230
1.0
 70
     8
 71
     3
 72
    48
 73
    44
 74
     0
 42
0.000000001
 43
0.0000000001
 40
0.0
 40
0.0
 40
0.0
 40
0.0
 40
0.0625000000000017
 40
0.0625000000000017
 40
0.0703125000000016
 40
0.0703125000000016
 40
0.0781250000000016
 40
0.0937500000000016
 40
0.1250000000000015
 40
0.1250000000000015
 40
0.1875000000000012
 40
0.1875000000000012
 40
0.2500000000000011
 40
0.2500000000000011
 40
0.3125000000000008
 40
0.3125000000000008
 40
0.3281250000000007
 40
0.3281250000000007
 40
0.3437500000000007
 40
0.3437500000000007
 40
0.3750000000000002
 40
0.3750000000000002
 40
0.437499999999999
 40
0.437499999999999
 40
0.4999999999999978
 40
0.4999999999999978
 40
0.5624999999999966
 40
0.5624999999999966
 40
0.5937499999999959
 40
0.6093749999999956
 40
0.6171874999999957
 40
0.6171874999999957
 40
0.6249999999999958
 40
0.6249999999999958
 40
0.6874999999999966
 40
0.6874999999999966
 40
0.7499999999999972
 40
0.7499999999999972
 40
0.812499999999998
 40
0.812499999999998
 40
0.8749999999999988
 40
0.8749999999999988
 40
1.0
 40
1.0
 40
1.0
 40
1.0
 10
370.7296753137261
 20
549.7080190005412
 30
0.0
 10
370.4741914663447
 20
549.2572023411167
 30
0.0
 10
370.1979704402599
 20
548.8220452835338
 30
0.0
 10
369.8657736811384
 20
548.3496121558784
 30
0.0
 10
369.8285759336886
 20
548.2973745594933
 30
0.0
 10
369.7537254497244
 20
548.1935590474724
 30
0.0
 10
369.6407208208536
 20
548.0387591360945
 30
0.0
 10
369.37203810435
 20
547.6839563497626
 30
0.0
 10
369.1334813365132
 20
547.3905879554227
 30
0.0
 10
368.6461432769981
 20
546.817680076183
 30
0.0
 10
368.3076370779235
 20
546.4541603610817
 30
0.0
 10
367.6070349365103
 20
545.761855712398
 30
0.0
 10
367.2449320574137
 20
545.4330773798845
 30
0.0
 10
366.5002443570542
 20
544.8087233656837
 30
0.0
 10
366.117654719265
 20
544.5131519830194
 30
0.0
 10
365.6283471018112
 20
544.1637268216921
 30
0.0
 10
365.5299314008574
 20
544.0948445453286
 30
0.0
 10
365.3320327007933
 20
543.9590705687594
 30
0.0
 10
365.232474856549
 20
543.8921317891943
 30
0.0
 10
364.9334720995676
 20
543.6950653141588
 30
0.0
 10
364.733363713794
 20
543.5684478763877
 30
0.0
 10
364.1312497216551
 20
543.2022024357755
 30
0.0
 10
363.7274662767031
 20
542.9761640899532
 30
0.0
 10
362.9176672892756
 20
542.557232830805
 30
0.0
 10
362.511647946799
 20
542.3643452916077
 30
0.0
 10
361.6995767119108
 20
542.0091122152961
 30
0.0
 10
361.2935219519031
 20
541.8467705209657
 30
0.0
 10
360.6859090353561
 20
541.6244752928471
 30
0.0
 10
360.3824678309336
 20
541.5186356106545
 30
0.0
 10
360.0294022849274
 20
541.4041070359309
 30
0.0
 10
359.8783242543633
 20
541.356906984226
 30
0.0
 10
359.777661548235
 20
541.3258550695303
 30
0.0
 10
359.7273612883691
 20
541.3105376683719
 30
0.0
 10
359.2756826035852
 20
541.1747536316832
 30
0.0
 10
358.8801250915471
 20
541.068353246475
 30
0.0
 10
358.1018113961363
 20
540.8807729472735
 30
0.0
 10
357.7190532949109
 20
540.7995977150356
 30
0.0
 10
356.9671726455597
 20
540.6595572664927
 30
0.0
 10
356.5980486106821
 20
540.6006955798138
 30
0.0
 10
355.874227871259
 20
540.5027000343887
 30
0.0
 10
355.5195299338894
 20
540.4635689512397
 30
0.0
 10
354.4782613526943
 20
540.3722467906688
 30
0.0
 10
353.8144803786794
 20
540.3460848206997
 30
0.0
 10
353.1845159110655
 20
540.3460848206997
 30
0.0
  0
SPLINE
  5
167
330
1F
100
AcDbEntity
  8
1
  6
Continuous
 62
    30
370
    18
100
AcDbSpline
210
0.0
220
0.0
230
1.0
 70
     8
 71
     3
 72
    44
 73
    40
 74
     0
 42
0.000000001
 43
0.0000000001
 40
0.0
 40
0.0
 40
0.0
 40
0.0
 40
0.0624999999999991
 40
0.0624999999999991
 40
0.1249999999999983
 40
0.1249999999999983
 40
0.1874999999999974
 40
0.1874999999999974
 40
0.218749999999997
 40
0.2343749999999966
 40
0.2343749999999966
 40
0.2499999999999962
 40
0.2499999999999962
 40
0.3124999999999964
 40
0.3124999999999964
 40
0.3749999999999967
 40
0.3749999999999967
 40
0.4374999999999969
 40
0.4374999999999969
 40
0.468749999999997
 40
0.4843749999999971
 40
0.4843749999999971
 40
0.4999999999999971
 40
0.4999999999999971
 40
0.5624999999999977
 40
0.5624999999999977
 40
0.6249999999999982
 40
0.6249999999999982
 40
0.6874999999999988
 40
0.6874999999999988
 40
0.7499999999999993
 40
0.7499999999999993
 40
0.7812499999999997
 40
0.7812499999999997
 40
0.8124999999999999
 40
0.8124999999999999
 40
0.8749999999999999
 40
0.8749999999999999
 40
1.0
 40
1.0
 40
1.0
 40
1.0
 10
392.7957117710915
 20
552.9417250265191
 30
0.0
 10
392.9487170598642
 20
552.6228542971686
 30
0.0
 10
393.1141033246784
 20
552.3158435265811
 30
0.0
 10
393.4668858494719
 20
551.7251031618688
 30
0.0
 10
393.6542875733424
 20
551.4413784931523
 30
0.0
 10
394.0486615743856
 20
550.8970919412022
 30
0.0
 10
394.255637408272
 20
550.6365334371251
 30
0.0
 10
394.5790728850814
 20
550.2631173548154
 30
0.0
 10
394.744035018889
 20
550.0807664482239
 30
0.0
 10
394.9135523475891
 20
549.9049713800669
 30
0.0
 10
395.0275419438993
 20
549.789234289629
 30
0.0
 10
395.085083888715
 20
549.7320406289102
 30
0.0
 10
395.3739535870155
 20
549.4508789285817
 30
0.0
 10
395.6093602334139
 20
549.2406564993091
 30
0.0
 10
396.0860352530943
 20
548.8475988484442
 30
0.0
 10
396.3273064724203
 20
548.6647661695312
 30
0.0
 10
396.8133186419594
 20
548.3246525416168
 30
0.0
 10
397.0580617133594
 20
548.1673731842162
 30
0.0
 10
397.4261999711252
 20
547.9493337933083
 30
0.0
 10
397.6105280922634
 20
547.8447852486794
 30
0.0
 10
397.7949734611649
 20
547.746711781836
 30
0.0
 10
397.9179345177917
 20
547.6827431781026
 30
0.0
 10
397.9794442949088
 20
547.6514505380261
 30
0.0
 10
398.2865772708876
 20
547.4986269382334
 30
0.0
 10
398.5295179227959
 20
547.3886930178933
 30
0.0
 10
399.0087511694927
 20
547.19051030339
 30
0.0
 10
399.2450464762661
 20
547.1022644536099
 30
0.0
 10
399.7101238891416
 20
546.9448796350401
 30
0.0
 10
399.9389079833401
 20
546.875742952004
 30
0.0
 10
400.3882724117255
 20
546.7542995846591
 30
0.0
 10
400.6088542255366
 20
546.7019947219857
 30
0.0
 10
400.9331487105086
 20
546.6346325893807
 30
0.0
 10
401.0401610735838
 20
546.6140277170828
 30
0.0
 10
401.2518923972267
 20
546.5762904201595
 30
0.0
 10
401.3563598196144
 20
546.559202173989
 30
0.0
 10
401.6655677398232
 20
546.5128612811568
 30
0.0
 10
401.8661136390805
 20
546.4885243519159
 30
0.0
 10
402.4509967849679
 20
546.4321758789621
 30
0.0
 10
402.8185873483203
 20
546.4167405981447
 30
0.0
 10
403.163894835741
 20
546.4167405981447
 30
0.0
  0
SPLINE
  5
168
330
1F
100
AcDbEntity
  8
1
  6
Continuous
 62
    30
370
    13
100
AcDbSpline
210
0.0
220
0.0
230
1.0
 70
     8
 71
     3
 72
    45
 73
    41
 74
     0
 42
0.000000001
 43
0.0000000001
 40
0.0
 40
0.0
 40
0.0
 40
0.0
 40
0.1250000000000004
 40
0.1250000000000004
 40
0.1875000000000006
 40
0.1875000000000006
 40
0.2031250000000007
 40
0.2031250000000007
 40
0.2187500000000008
 40
0.2187500000000008
 40
0.2500000000000014
 40
0.2500000000000014
 40
0.3125000000000026
 40
0.3125000000000026
 40
0.3750000000000037
 40
0.3750000000000037
 40
0.4375000000000047
 40
0.4375000000000047
 40
0.4687500000000053
 40
0.4687500000000053
 40
0.4843750000000055
 40
0.4843750000000055
 40
0.4921875000000055
 40
0.4921875000000055
 40
0.5000000000000054
 40
0.5625000000000048
 40
0.5625000000000048
 40
0.6250000000000041
 40
0.6250000000000041
 40
0.6875000000000034
 40
0.6875000000000034
 40
0.7500000000000028
 40
0.7500000000000028
 40
0.812500000000002
 40
0.812500000000002
 40
0.8750000000000013
 40
0.8750000000000013
 40
0.9375000000000007
 40
0.9375000000000007
 40
1.0
 40
1.0
 40
1.0
 40
1.0
 10
407.1432737604164
 20
540.3460848206997
 30
0.0
 10
406.5138288807417
 20
540.3460848206997
 30
0.0
 10
405.8482857390631
 20
540.372163703007
 30
0.0
 10
404.7995678354184
 20
540.4644285729262
 30
0.0
 10
404.4415858543958
 20
540.5040590313874
 30
0.0
 10
403.9839457675698
 20
540.566352703833
 30
0.0
 10
403.8919095782269
 20
540.5794499182906
 30
0.0
 10
403.7068294867576
 20
540.6069658442797
 30
0.0
 10
403.6138121459344
 20
540.6213813094423
 30
0.0
 10
403.3338328644091
 20
540.6665803370722
 30
0.0
 10
403.1457672050408
 20
540.6993419836992
 30
0.0
 10
402.5775640788601
 20
540.8059234878007
 30
0.0
 10
402.193418737919
 20
540.8880326497919
 30
0.0
 10
401.415705824733
 20
541.0766938362209
 30
0.0
 10
401.0221364611785
 20
541.1832428075575
 30
0.0
 10
400.2269130880486
 20
541.4233800839386
 30
0.0
 10
399.8252568557727
 20
541.5569644423072
 30
0.0
 10
399.2178140724843
 20
541.7798466641643
 30
0.0
 10
399.0145080058157
 20
541.857894955146
 30
0.0
 10
398.708463783555
 20
541.9809119745285
 30
0.0
 10
398.6062683009312
 20
542.0229086755338
 30
0.0
 10
398.4527241423668
 20
542.0874319857205
 30
0.0
 10
398.4014974238741
 20
542.1091962335383
 30
0.0
 10
398.2991298056077
 20
542.1531691218938
 30
0.0
 10
397.8386777325291
 20
542.3531252381429
 30
0.0
 10
397.3802034225225
 20
542.5718964632316
 30
0.0
 10
396.5705592124262
 20
542.9924384714182
 30
0.0
 10
396.1684446098273
 20
543.2185135824157
 30
0.0
 10
395.3721500534386
 20
543.7044791099429
 30
0.0
 10
394.9779659781191
 20
543.9643644622577
 30
0.0
 10
394.2003749187671
 20
544.5205996045593
 30
0.0
 10
393.8169600430693
 20
544.8169434599035
 30
0.0
 10
393.0642334956786
 20
545.449372640451
 30
0.0
 10
392.6999643170232
 20
545.7812508441755
 30
0.0
 10
391.9983000273717
 20
546.4769751249685
 30
0.0
 10
391.6608995360086
 20
546.8408171824556
 30
0.0
 10
391.0160178181334
 20
547.6015094995321
 30
0.0
 10
390.7085287695533
 20
547.9983534645713
 30
0.0
 10
390.1270755594932
 20
548.826645411943
 30
0.0
 10
389.8530990892358
 20
549.2580830612311
 30
0.0
 10
389.5981143577557
 20
549.7080190005412
 30
0.0
  0
SPLINE
  5
169
330
1F
100
AcDbEntity
  8
1
  6
Continuous
 62
    30
370
    13
100
AcDbSpline
210
0.0
220
0.0
230
1.0
 70
     8
 71
     3
 72
    22
 73
    18
 74
     0
 42
0.000000001
 43
0.0000000001
 40
0.0
 40
0.0
 40
0.0
 40
0.0
 40
0.1249999999999961
 40
0.2499999999999923
 40
0.2499999999999923
 40
0.3749999999999885
 40
0.3749999999999885
 40
0.4062499999999874
 40
0.4062499999999874
 40
0.4374999999999864
 40
0.499999999999987
 40
0.499999999999987
 40
0.6249999999999902
 40
0.7499999999999934
 40
0.8749999999999968
 40
0.8749999999999968
 40
1.0
 40
1.0
 40
1.0
 40
1.0
 10
777.6720916475015
 20
579.7080190005412
 30
0.0
 10
777.5588654967512
 20
580.0215003226973
 30
0.0
 10
777.3464631673097
 20
580.6584928742421
 30
0.0
 10
777.162002039829
 20
581.3158016357105
 30
0.0
 10
776.9916009919493
 20
581.9834999283479
 30
0.0
 10
776.9134298202647
 20
582.3225432430507
 30
0.0
 10
776.8246733970013
 20
582.753058066378
 30
0.0
 10
776.8073687717327
 20
582.8395107189233
 30
0.0
 10
776.7737661836976
 20
583.012540090118
 30
0.0
 10
776.7248295024931
 20
583.2724739749096
 30
0.0
 10
776.6802650932713
 20
583.5335728464772
 30
0.0
 10
776.5969061718885
 20
584.05731578977
 30
0.0
 10
776.5011348271594
 20
584.7597575845143
 30
0.0
 10
776.4031043807016
 20
585.8257422142591
 30
0.0
 10
776.3682402517092
 20
586.5446792940156
 30
0.0
 10
776.3488654390825
 20
587.2678358028567
 30
0.0
 10
776.3469218595135
 20
587.6315235684324
 30
0.0
 10
776.3529578417761
 20
587.997385759435
 30
0.0
  0
SPLINE
  5
16A
330
1F
100
AcDbEntity
  8
1
  6
Continuous
 62
    30
370
    13
100
AcDbSpline
210
0.0
220
0.0
230
1.0
 70
     8
 71
     3
 72
    21
 73
    17
 74
     0
 42
0.000000001
 43
0.0000000001
 40
0.0
 40
0.0
 40
0.0
 40
0.0
 40
0.1250000000000014
 40
0.2500000000000029
 40
0.3750000000000043
 40
0.3750000000000043
 40
0.4062500000000048
 40
0.4062500000000048
 40
0.4375000000000053
 40
0.5000000000000058
 40
0.5000000000000058
 40
0.6250000000000043
 40
0.6250000000000043
 40
0.7500000000000029
 40
0.8750000000000014
 40
1.0
 40
1.0
 40
1.0
 40
1.0
 10
846.7428634656345
 20
587.997385759435
 30
0.0
 10
846.7488975677371
 20
587.6316375315666
 30
0.0
 10
846.7450436182305
 20
586.9027906790836
 30
0.0
 10
846.6922638744701
 20
585.8173387961338
 30
0.0
 10
846.6258202530832
 20
585.098887647599
 30
0.0
 10
846.5744150082933
 20
584.6514841105718
 30
0.0
 10
846.5636371952362
 20
584.5620745172826
 30
0.0
 10
846.5411658689559
 20
584.3840045354797
 30
0.0
 10
846.5060606628531
 20
584.1178022977275
 30
0.0
 10
846.4667994911935
 20
583.8542779790738
 30
0.0
 10
846.3828190303702
 20
583.3307303745013
 30
0.0
 10
846.3195606879848
 20
582.9863633317574
 30
0.0
 10
846.1787869157195
 20
582.3066754173803
 30
0.0
 10
846.0237550600704
 20
581.6360343265586
 30
0.0
 10
845.7487217568859
 20
580.6566711967369
 30
0.0
 10
845.5368883821756
 20
580.0213136381713
 30
0.0
 10
845.4237296599091
 20
579.7080190005412
 30
0.0
  0
SPLINE
  5
16B
330
1F
100
AcDbEntity
  8
1
  6
Continuous
 62
    30
370
    13
100
AcDbSpline
210
0.0
220
0.0
230
1.0
 70
     8
 71
     3
 72
    22
 73
    18
 74
     0
 42
0.000000001
 43
0.0000000001
 40
0.0
 40
0.0
 40
0.0
 40
0.0
 40
0.1249999999999962
 40
0.1249999999999962
 40
0.2499999999999925
 40
0.3749999999999887
 40
0.4999999999999849
 40
0.4999999999999849
 40
0.5624999999999833
 40
0.5624999999999833
 40
0.5937499999999842
 40
0.5937499999999842
 40
0.6249999999999852
 40
0.6249999999999852
 40
0.7499999999999915
 40
0.7499999999999915
 40
1.0
 40
1.0
 40
1.0
 40
1.0
 10
781.2411457323218
 20
587.9167405981447
 30
0.0
 10
781.235860965693
 20
587.6934814383014
 30
0.0
 10
781.2376845619322
 20
587.4718030701005
 30
0.0
 10
781.255039321889
 20
587.0314938917536
 30
0.0
 10
781.2861030699552
 20
586.594232555519
 30
0.0
 10
781.3729423033774
 20
585.9472667088098
 30
0.0
 10
781.4574547676308
 20
585.5218346738427
 30
0.0
 10
781.5308768958436
 20
585.2049632737949
 30
0.0
 10
781.5570601740519
 20
585.0995866380869
 30
0.0
 10
781.5986559194209
 20
584.942832407744
 30
0.0
 10
781.6129121123088
 20
584.8907774867815
 30
0.0
 10
781.6422010401249
 20
584.7870571027094
 30
0.0
 10
781.6572371390182
 20
584.7353818210597
 30
0.0
 10
781.7342037356601
 20
584.4784363804072
 30
0.0
 10
781.8015848146216
 20
584.2770886536064
 30
0.0
 10
782.0203409709399
 20
583.6849586478183
 30
0.0
 10
782.1882646533227
 20
583.3060467622113
 30
0.0
 10
782.3770665094743
 20
582.9417250265191
 30
0.0
  0
SPLINE
  5
16C
330
1F
100
AcDbEntity
  8
1
  6
Continuous
 62
    30
370
    13
100
AcDbSpline
210
0.0
220
0.0
230
1.0
 70
     8
 71
     3
 72
    21
 73
    17
 74
     0
 42
0.000000001
 43
0.0000000001
 40
0.0
 40
0.0
 40
0.0
 40
0.0
 40
0.2500000000000013
 40
0.2500000000000013
 40
0.3750000000000036
 40
0.3750000000000036
 40
0.5000000000000058
 40
0.5000000000000058
 40
0.5625000000000084
 40
0.5937500000000095
 40
0.5937500000000095
 40
0.6250000000000108
 40
0.6250000000000108
 40
0.7500000000000072
 40
0.8750000000000036
 40
1.0
 40
1.0
 40
1.0
 40
1.0
 10
840.7187547979364
 20
582.9417250265191
 30
0.0
 10
840.9077453940752
 20
583.3064109645613
 30
0.0
 10
841.0749111101218
 20
583.6839971583486
 30
0.0
 10
841.2920087873546
 20
584.2707740467265
 30
0.0
 10
841.3587511708707
 20
584.4697740530402
 30
0.0
 10
841.4806267306014
 20
584.8748806799571
 30
0.0
 10
841.5357611453184
 20
585.0809865293934
 30
0.0
 10
841.609353361663
 20
585.3957684708262
 30
0.0
 10
841.6438698823484
 20
585.5545665218795
 30
0.0
 10
841.6748685093228
 20
585.7155435532993
 30
0.0
 10
841.6947397717197
 20
585.8233544320069
 30
0.0
 10
841.7042859392935
 20
585.8775526370938
 30
0.0
 10
841.7499072288309
 20
586.1492563718698
 30
0.0
 10
841.8090300978828
 20
586.5860917194605
 30
0.0
 10
841.8563074393405
 20
587.2476706782163
 30
0.0
 10
841.859971992847
 20
587.6929892271011
 30
0.0
 10
841.8546755750888
 20
587.9167405981447
 30
0.0
  0
SPLINE
  5
16D
330
1F
100
AcDbEntity
  8
1
  6
Continuous
 62
    30
370
    18
100
AcDbSpline
210
0.0
220
0.0
230
1.0
 70
     8
 71
     3
 72
    73
 73
    69
 74
     0
 42
0.000000001
 43
0.0000000001
 40
0.0
 40
0.0
 40
0.0
 40
0.0
 40
0.0312500000000008
 40
0.0312500000000008
 40
0.0625000000000016
 40
0.0625000000000016
 40
0.0937500000000024
 40
0.0937500000000024
 40
0.1015625000000022
 40
0.1015625000000022
 40
0.1093750000000021
 40
0.1093750000000021
 40
0.125000000000001
 40
0.125000000000001
 40
0.1328125000000008
 40
0.1328125000000008
 40
0.1406250000000006
 40
0.1562499999999995
 40
0.1562499999999995
 40
0.1874999999999979
 40
0.1874999999999979
 40
0.2187499999999964
 40
0.2187499999999964
 40
0.2499999999999949
 40
0.2499999999999949
 40
0.2656249999999944
 40
0.2656249999999944
 40
0.2734374999999942
 40
0.2734374999999942
 40
0.2812499999999939
 40
0.2812499999999939
 40
0.3124999999999939
 40
0.3124999999999939
 40
0.3437499999999938
 40
0.3437499999999938
 40
0.3749999999999938
 40
0.3749999999999938
 40
0.4374999999999938
 40
0.4374999999999938
 40
0.468749999999994
 40
0.468749999999994
 40
0.4843749999999943
 40
0.4843749999999943
 40
0.4999999999999945
 40
0.4999999999999945
 40
0.5624999999999954
 40
0.5624999999999954
 40
0.6249999999999964
 40
0.6249999999999964
 40
0.6874999999999973
 40
0.6874999999999973
 40
0.7499999999999983
 40
0.7499999999999983
 40
0.7812499999999986
 40
0.7812499999999986
 40
0.8124999999999988
 40
0.8124999999999988
 40
0.8749999999999993
 40
0.8749999999999993
 40
0.9374999999999998
 40
0.9374999999999998
 40
0.9687500000000001
 40
0.9687500000000001
 40
0.9843750000000002
 40
0.9921875000000001
 40
0.9960937500000001
 40
0.9960937500000001
 40
1.0
 40
1.0
 40
1.0
 40
1.0
 10
798.1270322142665
 20
588.4572811386852
 30
0.0
 10
798.157347049832
 20
588.1785123654943
 30
0.0
 10
798.1960117265742
 20
587.9036558351864
 30
0.0
 10
798.2891305273478
 20
587.3612631898923
 30
0.0
 10
798.3435865640487
 20
587.0937282008416
 30
0.0
 10
798.4676385979645
 20
586.5656129360258
 30
0.0
 10
798.53723581743
 20
586.3050333859915
 30
0.0
 10
798.6334195424164
 20
585.983494498669
 30
0.0
 10
798.6531161147157
 20
585.919396236324
 30
0.0
 10
798.6934238113802
 20
585.7916156097077
 30
0.0
 10
798.7140492259672
 20
585.7278904587997
 30
0.0
 10
798.7771887117427
 20
585.5376402765967
 30
0.0
 10
798.8208847601567
 20
585.4122733994749
 30
0.0
 10
798.8887466132462
 20
585.226333472267
 30
0.0
 10
798.9117603062671
 20
585.1646879650817
 30
0.0
 10
798.9585194217804
 20
585.0421607967675
 30
0.0
 10
799.0296349249677
 20
584.8598308192844
 30
0.0
 10
799.1035941675234
 20
584.6817415186897
 30
0.0
 10
799.2551017474078
 20
584.3308868698537
 30
0.0
 10
799.3608851327429
 20
584.1040707306737
 30
0.0
 10
799.5811325337215
 20
583.6631861317732
 30
0.0
 10
799.6955987240326
 20
583.4491213166002
 30
0.0
 10
799.9325442749724
 20
583.0326530669558
 30
0.0
 10
800.055025058426
 20
582.8302520082093
 30
0.0
 10
800.2443676356311
 20
582.5347625299768
 30
0.0
 10
800.3084197718881
 20
582.4376197313998
 30
0.0
 10
800.4058644892588
 20
582.2938698577477
 30
0.0
 10
800.4385958228495
 20
582.2462498720786
 30
0.0
 10
800.5043163092324
 20
582.1519271461378
 30
0.0
 10
800.5373223157793
 20
582.1051986458879
 30
0.0
 10
800.7030626121776
 20
581.8736589460423
 30
0.0
 10
800.8379236263326
 20
581.6951426117723
 30
0.0
 10
801.1117781135168
 20
581.3501991034904
 30
0.0
 10
801.2507724811493
 20
581.1837749778017
 30
0.0
 10
801.5325780362496
 20
580.8619708256695
 30
0.0
 10
801.6753898240348
 20
580.7065928373282
 30
0.0
 10
802.1091743503961
 20
580.2557771767258
 30
0.0
 10
802.405477670055
 20
579.9755982468766
 30
0.0
 10
802.8595166160236
 20
579.5822397842129
 30
0.0
 10
803.0124653846416
 20
579.4556218021485
 30
0.0
 10
803.244195312815
 20
579.2721166198754
 30
0.0
 10
803.3218233173496
 20
579.2120192595492
 30
0.0
 10
803.4778351516692
 20
579.0939196537804
 30
0.0
 10
803.5560515590223
 20
579.0360446861764
 30
0.0
 10
803.9478650147618
 20
578.7525571809031
 30
0.0
 10
804.263959091276
 20
578.5443041145905
 30
0.0
 10
804.900998719529
 20
578.1606007692895
 30
0.0
 10
805.2219461319861
 20
577.9851689364392
 30
0.0
 10
805.8684187574156
 20
577.6642469234496
 30
0.0
 10
806.1939449872066
 20
577.5187670965447
 30
0.0
 10
806.849415460213
 20
577.2558228501632
 30
0.0
 10
807.1793602345668
 20
577.1383643397631
 30
0.0
 10
807.6775399427046
 20
576.9822706167053
 30
0.0
 10
807.8441442762119
 20
576.9335933729524
 30
0.0
 10
808.1784409320709
 20
576.8428478708405
 30
0.0
 10
808.3462478661287
 20
576.800757385312
 30
0.0
 10
808.8496967140785
 20
576.6846476981287
 30
0.0
 10
809.1857768203724
 20
576.6206430179168
 30
0.0
 10
809.8589133379929
 20
576.5184879069527
 30
0.0
 10
810.1959695826116
 20
576.4803396673019
 30
0.0
 10
810.702355827203
 20
576.4421834368167
 30
0.0
 10
810.8712849970084
 20
576.4326461648509
 30
0.0
 10
811.1248892808029
 20
576.4231047219478
 30
0.0
 10
811.251744068524
 20
576.4195254569047
 30
0.0
 10
811.39983577063
 20
576.4174365947512
 30
0.0
 10
811.4633241415031
 20
576.4169890044094
 30
0.0
 10
811.505654306462
 20
576.4167901400236
 30
0.0
 10
811.5268494348269
 20
576.4167405981447
 30
0.0
 10
811.5479106537053
 20
576.4167405981447
 30
0.0
  0
SPLINE
  5
16E
330
1F
100
AcDbEntity
  8
1
  6
Continuous
 62
    30
370
    13
100
AcDbSpline
210
0.0
220
0.0
230
1.0
 70
     8
 71
     3
 72
    75
 73
    71
 74
     0
 42
0.000000001
 43
0.0000000001
 40
0.0
 40
0.0
 40
0.0
 40
0.0
 40
0.0009765625000002
 40
0.0009765625000002
 40
0.0019531250000003
 40
0.0019531250000003
 40
0.0039062500000006
 40
0.0078125000000006
 40
0.0156250000000006
 40
0.0312500000000008
 40
0.0625000000000016
 40
0.0625000000000016
 40
0.1250000000000029
 40
0.1250000000000029
 40
0.1875000000000043
 40
0.1875000000000043
 40
0.2187500000000049
 40
0.2187500000000049
 40
0.2500000000000054
 40
0.2500000000000054
 40
0.3125000000000066
 40
0.3125000000000066
 40
0.3750000000000075
 40
0.3750000000000075
 40
0.4375000000000087
 40
0.4375000000000087
 40
0.5000000000000097
 40
0.5000000000000097
 40
0.5156250000000099
 40
0.5156250000000099
 40
0.52343750000001
 40
0.52343750000001
 40
0.5312500000000099
 40
0.5312500000000099
 40
0.5625000000000093
 40
0.5625000000000093
 40
0.6250000000000085
 40
0.6250000000000085
 40
0.6562500000000083
 40
0.6562500000000083
 40
0.687500000000008
 40
0.687500000000008
 40
0.7187500000000078
 40
0.7187500000000078
 40
0.7343750000000078
 40
0.7343750000000078
 40
0.7500000000000075
 40
0.7500000000000075
 40
0.7812500000000073
 40
0.7812500000000073
 40
0.812500000000007
 40
0.812500000000007
 40
0.8437500000000068
 40
0.8437500000000068
 40
0.8593750000000061
 40
0.8671875000000054
 40
0.8671875000000054
 40
0.8750000000000048
 40
0.8750000000000048
 40
0.8828125000000041
 40
0.8828125000000041
 40
0.8906250000000034
 40
0.8906250000000034
 40
0.9062500000000029
 40
0.9062500000000029
 40
0.937500000000002
 40
0.937500000000002
 40
0.968750000000001
 40
0.968750000000001
 40
1.0
 40
1.0
 40
1.0
 40
1.0
 10
811.5479106537053
 20
576.4167405981447
 30
0.0
 10
811.5407522289264
 20
576.4167405981447
 30
0.0
 10
811.5335938050156
 20
576.416743493942
 30
0.0
 10
811.5192769589297
 20
576.4167550771406
 30
0.0
 10
811.5120394359091
 20
576.4167638595956
 30
0.0
 10
811.4904341307581
 20
576.4167989193388
 30
0.0
 10
811.447225636486
 20
576.4169042073959
 30
0.0
 10
811.3464206020852
 20
576.4173959933091
 30
0.0
 10
811.1448694658413
 20
576.4193635454577
 30
0.0
 10
810.742001296509
 20
576.4272316105491
 30
0.0
 10
810.3970816592058
 20
576.4407106695917
 30
0.0
 10
809.7077579603479
 20
576.4766646591456
 30
0.0
 10
809.2488956132779
 20
576.5126149173591
 30
0.0
 10
808.3324953411607
 20
576.608881554693
 30
0.0
 10
807.8749574678005
 20
576.6691960313289
 30
0.0
 10
807.189622355248
 20
576.7785863589352
 30
0.0
 10
806.96119173601
 20
576.8182377652166
 30
0.0
 10
806.5059527580713
 20
576.9037533959959
 30
0.0
 10
806.2790285179009
 20
576.9496318967199
 30
0.0
 10
805.6003585448988
 20
577.0967729341224
 30
0.0
 10
805.1507119216835
 20
577.2075229520192
 30
0.0
 10
804.2571915345835
 20
577.4555008612585
 30
0.0
 10
803.813316873966
 20
577.5927234858018
 30
0.0
 10
802.9316389731181
 20
577.8954447547002
 30
0.0
 10
802.4938341356077
 20
578.0609343098864
 30
0.0
 10
801.6247573142329
 20
578.4228341639903
 30
0.0
 10
801.1934824999663
 20
578.6192285134669
 30
0.0
 10
800.6589021440282
 20
578.8864547546135
 30
0.0
 10
800.5522124216146
 20
578.9409903881681
 30
0.0
 10
800.3925277662761
 20
579.0244872339135
 30
0.0
 10
800.339362588042
 20
579.0525996658315
 30
0.0
 10
800.233319822899
 20
579.1093075885085
 30
0.0
 10
800.180421346603
 20
579.1379139353551
 30
0.0
 10
799.9165499182374
 20
579.2822221787833
 30
0.0
 10
799.7074383075503
 20
579.401750279743
 30
0.0
 10
799.0863417350787
 20
579.7732157110082
 30
0.0
 10
798.6805672808214
 20
580.037972815428
 30
0.0
 10
798.0858868113208
 20
580.4642489274693
 30
0.0
 10
797.8899964690897
 20
580.6112115546787
 30
0.0
 10
797.5032424745722
 20
580.9156692684339
 30
0.0
 10
797.3123780064701
 20
581.0731625060857
 30
0.0
 10
796.9361168192653
 20
581.39966747022
 30
0.0
 10
796.7507188921425
 20
581.5686764535544
 30
0.0
 10
796.4771422399319
 20
581.8317668546056
 30
0.0
 10
796.3866802654516
 20
581.9210866793666
 30
0.0
 10
796.2074490603356
 20
582.1030123465102
 30
0.0
 10
796.1190193259743
 20
582.1952729007775
 30
0.0
 10
795.8574076611441
 20
582.476086882235
 30
0.0
 10
795.6878973226347
 20
582.6686657589476
 30
0.0
 10
795.3594385239969
 20
583.065451629805
 30
0.0
 10
795.2004879471442
 20
583.269656136052
 30
0.0
 10
794.8941276402761
 20
583.690827570644
 30
0.0
 10
794.7467146649076
 20
583.9077906759601
 30
0.0
 10
794.5352050042593
 20
584.243913581519
 30
0.0
 10
794.4318565041284
 20
584.4146491131409
 30
0.0
 10
794.3323392277968
 20
584.5896531998907
 30
0.0
 10
794.2668739122654
 20
584.7073038746319
 30
0.0
 10
794.2345698865855
 20
584.7666421320257
 30
0.0
 10
794.1710424475482
 20
584.8860040784526
 30
0.0
 10
794.1397982078894
 20
584.9460641797476
 30
0.0
 10
794.0783716247072
 20
585.0669602535689
 30
0.0
 10
794.0481735180235
 20
585.1278289280913
 30
0.0
 10
793.9593164843883
 20
585.3114038984793
 30
0.0
 10
793.9025286562467
 20
585.4347946349106
 30
0.0
 10
793.7396661269772
 20
585.8080561750577
 30
0.0
 10
793.6410821276478
 20
586.061011859083
 30
0.0
 10
793.4649234255371
 20
586.5756076054782
 30
0.0
 10
793.387345788546
 20
586.8372463406873
 30
0.0
 10
793.2545853337326
 20
587.3698193062414
 30
0.0
 10
793.1993979951851
 20
587.640751486059
 30
0.0
 10
793.1563364959558
 20
587.9167405981447
 30
0.0
  0
SPLINE
  5
16F
330
1F
100
AcDbEntity
  8
1
  6
Continuous
 62
    30
370
    18
100
AcDbSpline
210
0.0
220
0.0
230
1.0
 70
     8
 71
     3
 72
    73
 73
    69
 74
     0
 42
0.000000001
 43
0.0000000001
 40
0.0
 40
0.0
 40
0.0
 40
0.0
 40
0.0039062499999999
 40
0.0039062499999999
 40
0.0078124999999998
 40
0.0156249999999997
 40
0.0312499999999997
 40
0.0312499999999997
 40
0.0624999999999999
 40
0.0624999999999999
 40
0.1250000000000003
 40
0.1250000000000003
 40
0.1875000000000007
 40
0.1875000000000007
 40
0.218750000000001
 40
0.218750000000001
 40
0.2500000000000013
 40
0.2500000000000013
 40
0.3125000000000018
 40
0.3125000000000018
 40
0.3750000000000022
 40
0.3750000000000022
 40
0.4375000000000023
 40
0.4375000000000023
 40
0.5000000000000024
 40
0.5000000000000024
 40
0.5156250000000027
 40
0.5156250000000027
 40
0.5312500000000027
 40
0.5312500000000027
 40
0.5625000000000028
 40
0.5625000000000028
 40
0.6250000000000026
 40
0.6250000000000026
 40
0.6562500000000024
 40
0.6562500000000024
 40
0.6875000000000024
 40
0.6875000000000024
 40
0.7187500000000023
 40
0.7187500000000023
 40
0.7265625000000022
 40
0.7265625000000022
 40
0.7343750000000021
 40
0.7343750000000021
 40
0.7500000000000019
 40
0.7500000000000019
 40
0.7812500000000009
 40
0.7812500000000009
 40
0.8124999999999998
 40
0.8124999999999998
 40
0.8437499999999988
 40
0.8437499999999988
 40
0.8593749999999979
 40
0.8671874999999978
 40
0.8671874999999978
 40
0.8749999999999978
 40
0.8749999999999978
 40
0.8906249999999969
 40
0.8906249999999969
 40
0.8984374999999968
 40
0.8984374999999968
 40
0.9062499999999967
 40
0.9062499999999967
 40
0.9374999999999978
 40
0.9374999999999978
 40
0.9687499999999989
 40
0.9687499999999989
 40
1.0
 40
1.0
 40
1.0
 40
1.0
 10
811.5479106537053
 20
576.4167405981447
 30
0.0
 10
811.5689718725837
 20
576.4167405981447
 30
0.0
 10
811.5901670009486
 20
576.4167901400236
 30
0.0
 10
811.6324971659075
 20
576.4169890044094
 30
0.0
 10
811.6959855367807
 20
576.4174365947512
 30
0.0
 10
811.8440772388866
 20
576.4195254569047
 30
0.0
 10
811.9709320266077
 20
576.4231047219478
 30
0.0
 10
812.2245363104022
 20
576.4326461648509
 30
0.0
 10
812.3934654802076
 20
576.4421834368168
 30
0.0
 10
812.899851724799
 20
576.480339667302
 30
0.0
 10
813.2369079694176
 20
576.5184879069527
 30
0.0
 10
813.9100444870381
 20
576.6206430179168
 30
0.0
 10
814.2461245933321
 20
576.6846476981287
 30
0.0
 10
814.7495734412819
 20
576.800757385312
 30
0.0
 10
814.9173803753397
 20
576.8428478708405
 30
0.0
 10
815.2516770311988
 20
576.9335933729524
 30
0.0
 10
815.418281364706
 20
576.9822706167053
 30
0.0
 10
815.9164610728438
 20
577.1383643397631
 30
0.0
 10
816.2464058471976
 20
577.2558228501632
 30
0.0
 10
816.901876320204
 20
577.5187670965447
 30
0.0
 10
817.227402549995
 20
577.6642469234496
 30
0.0
 10
817.8738751754245
 20
577.9851689364392
 30
0.0
 10
818.1948225878816
 20
578.1606007692895
 30
0.0
 10
818.8318622161347
 20
578.5443041145905
 30
0.0
 10
819.1479562926488
 20
578.7525571809031
 30
0.0
 10
819.5397697483884
 20
579.0360446861764
 30
0.0
 10
819.6179861557414
 20
579.0939196537804
 30
0.0
 10
819.773997990061
 20
579.2120192595493
 30
0.0
 10
819.8516259945956
 20
579.2721166198754
 30
0.0
 10
820.083355922769
 20
579.4556218021485
 30
0.0
 10
820.236304691387
 20
579.5822397842129
 30
0.0
 10
820.6903436373557
 20
579.9755982468766
 30
0.0
 10
820.9866469570146
 20
580.2557771767258
 30
0.0
 10
821.4204314833759
 20
580.7065928373282
 30
0.0
 10
821.563243271161
 20
580.8619708256695
 30
0.0
 10
821.8450488262614
 20
581.1837749778017
 30
0.0
 10
821.9840431938939
 20
581.3501991034904
 30
0.0
 10
822.257897681078
 20
581.6951426117723
 30
0.0
 10
822.392758695233
 20
581.8736589460424
 30
0.0
 10
822.5584989916313
 20
582.1051986458879
 30
0.0
 10
822.5915049981783
 20
582.1519271461378
 30
0.0
 10
822.6572254845612
 20
582.2462498720786
 30
0.0
 10
822.6899568181519
 20
582.2938698577477
 30
0.0
 10
822.7874015355225
 20
582.4376197313998
 30
0.0
 10
822.8514536717795
 20
582.5347625299768
 30
0.0
 10
823.0407962489846
 20
582.8302520082093
 30
0.0
 10
823.1632770324383
 20
583.0326530669558
 30
0.0
 10
823.4002225833781
 20
583.4491213166002
 30
0.0
 10
823.514688773689
 20
583.6631861317732
 30
0.0
 10
823.7349361746678
 20
584.1040707306737
 30
0.0
 10
823.8407195600029
 20
584.3308868698537
 30
0.0
 10
823.9922271398872
 20
584.6817415186897
 30
0.0
 10
824.066186382443
 20
584.8598308192844
 30
0.0
 10
824.1373018856303
 20
585.0421607967675
 30
0.0
 10
824.1840610011436
 20
585.1646879650817
 30
0.0
 10
824.2070746941645
 20
585.226333472267
 30
0.0
 10
824.2749365472539
 20
585.4122733994749
 30
0.0
 10
824.318632595668
 20
585.5376402765967
 30
0.0
 10
824.3817720814435
 20
585.7278904587997
 30
0.0
 10
824.4023974960305
 20
585.7916156097077
 30
0.0
 10
824.442705192695
 20
585.919396236324
 30
0.0
 10
824.4624017649942
 20
585.983494498669
 30
0.0
 10
824.5585854899807
 20
586.3050333859915
 30
0.0
 10
824.6281827094462
 20
586.5656129360258
 30
0.0
 10
824.7522347433619
 20
587.0937282008416
 30
0.0
 10
824.8066907800628
 20
587.3612631898923
 30
0.0
 10
824.8998095808365
 20
587.9036558351864
 30
0.0
 10
824.9384742575787
 20
588.1785123654943
 30
0.0
 10
824.9687890931442
 20
588.4572811386852
 30
0.0
  0
SPLINE
  5
170
330
1F
100
AcDbEntity
  8
1
  6
Continuous
 62
    30
370
    13
100
AcDbSpline
210
0.0
220
0.0
230
1.0
 70
     8
 71
     3
 72
    75
 73
    71
 74
     0
 42
0.000000001
 43
0.0000000001
 40
0.0
 40
0.0
 40
0.0
 40
0.0
 40
0.0312500000000012
 40
0.0312500000000012
 40
0.0625000000000024
 40
0.0625000000000024
 40
0.0937500000000036
 40
0.0937500000000036
 40
0.1093750000000042
 40
0.1093750000000042
 40
0.1171875000000041
 40
0.1171875000000041
 40
0.125000000000004
 40
0.125000000000004
 40
0.1328125000000039
 40
0.1328125000000039
 40
0.1406250000000038
 40
0.1562500000000044
 40
0.1562500000000044
 40
0.1875000000000059
 40
0.1875000000000059
 40
0.2187500000000075
 40
0.2187500000000075
 40
0.2500000000000089
 40
0.2500000000000089
 40
0.2656250000000093
 40
0.2656250000000093
 40
0.2812500000000097
 40
0.2812500000000097
 40
0.3125000000000102
 40
0.3125000000000102
 40
0.3437500000000108
 40
0.3437500000000108
 40
0.3750000000000114
 40
0.3750000000000114
 40
0.4375000000000129
 40
0.4375000000000129
 40
0.4687500000000134
 40
0.4687500000000134
 40
0.4765625000000135
 40
0.4765625000000135
 40
0.4843750000000135
 40
0.4843750000000135
 40
0.5000000000000133
 40
0.5000000000000133
 40
0.5625000000000118
 40
0.5625000000000118
 40
0.6250000000000101
 40
0.6250000000000101
 40
0.6875000000000085
 40
0.6875000000000085
 40
0.7500000000000069
 40
0.7500000000000069
 40
0.7812500000000061
 40
0.7812500000000061
 40
0.8125000000000053
 40
0.8125000000000053
 40
0.8750000000000034
 40
0.8750000000000034
 40
0.9375000000000016
 40
0.9375000000000016
 40
0.9687500000000007
 40
0.9843750000000002
 40
0.9921874999999999
 40
0.9960937499999998
 40
0.9980468749999998
 40
0.9980468749999998
 40
0.9990234375
 40
0.9990234375
 40
1.0
 40
1.0
 40
1.0
 40
1.0
 10
829.9394848114548
 20
587.9167405981447
 30
0.0
 10
829.8964233122256
 20
587.640751486059
 30
0.0
 10
829.841235973678
 20
587.3698193062414
 30
0.0
 10
829.7084755188647
 20
586.8372463406874
 30
0.0
 10
829.6308978818736
 20
586.5756076054782
 30
0.0
 10
829.4547391797629
 20
586.061011859083
 30
0.0
 10
829.3561551804335
 20
585.8080561750577
 30
0.0
 10
829.193292651164
 20
585.4347946349106
 30
0.0
 10
829.1365048230223
 20
585.3114038984793
 30
0.0
 10
829.047647789387
 20
585.1278289280913
 30
0.0
 10
829.0174496827034
 20
585.0669602535689
 30
0.0
 10
828.9560230995212
 20
584.9460641797476
 30
0.0
 10
828.9247788598624
 20
584.8860040784526
 30
0.0
 10
828.861251420825
 20
584.7666421320257
 30
0.0
 10
828.8289473951453
 20
584.7073038746319
 30
0.0
 10
828.7634820796139
 20
584.5896531998907
 30
0.0
 10
828.6639648032823
 20
584.4146491131409
 30
0.0
 10
828.5606163031514
 20
584.243913581519
 30
0.0
 10
828.3491066425031
 20
583.9077906759601
 30
0.0
 10
828.2016936671345
 20
583.690827570644
 30
0.0
 10
827.8953333602665
 20
583.269656136052
 30
0.0
 10
827.7363827834138
 20
583.065451629805
 30
0.0
 10
827.4079239847758
 20
582.6686657589476
 30
0.0
 10
827.2384136462666
 20
582.4760868822351
 30
0.0
 10
826.9768019814364
 20
582.1952729007775
 30
0.0
 10
826.888372247075
 20
582.1030123465102
 30
0.0
 10
826.7091410419591
 20
581.9210866793667
 30
0.0
 10
826.6186790674786
 20
581.8317668546056
 30
0.0
 10
826.3451024152681
 20
581.5686764535544
 30
0.0
 10
826.1597044881453
 20
581.39966747022
 30
0.0
 10
825.7834433009405
 20
581.0731625060857
 30
0.0
 10
825.5925788328384
 20
580.9156692684339
 30
0.0
 10
825.205824838321
 20
580.6112115546787
 30
0.0
 10
825.0099344960897
 20
580.4642489274692
 30
0.0
 10
824.4152540265893
 20
580.0379728154279
 30
0.0
 10
824.009479572332
 20
579.7732157110082
 30
0.0
 10
823.3883829998604
 20
579.401750279743
 30
0.0
 10
823.1792713891733
 20
579.2822221787833
 30
0.0
 10
822.9153999608076
 20
579.1379139353551
 30
0.0
 10
822.8625014845115
 20
579.1093075885085
 30
0.0
 10
822.7564587193685
 20
579.0525996658315
 30
0.0
 10
822.7032935411346
 20
579.0244872339135
 30
0.0
 10
822.543608885796
 20
578.9409903881681
 30
0.0
 10
822.4369191633824
 20
578.8864547546135
 30
0.0
 10
821.9023388074443
 20
578.6192285134669
 30
0.0
 10
821.4710639931778
 20
578.4228341639903
 30
0.0
 10
820.6019871718029
 20
578.0609343098864
 30
0.0
 10
820.1641823342926
 20
577.8954447547002
 30
0.0
 10
819.2825044334446
 20
577.5927234858018
 30
0.0
 10
818.8386297728271
 20
577.4555008612585
 30
0.0
 10
817.945109385727
 20
577.2075229520192
 30
0.0
 10
817.4954627625118
 20
577.0967729341224
 30
0.0
 10
816.8167927895097
 20
576.9496318967199
 30
0.0
 10
816.5898685493394
 20
576.9037533959959
 30
0.0
 10
816.1346295714006
 20
576.8182377652166
 30
0.0
 10
815.9061989521625
 20
576.7785863589352
 30
0.0
 10
815.22086383961
 20
576.6691960313289
 30
0.0
 10
814.7633259662499
 20
576.608881554693
 30
0.0
 10
813.8469256941327
 20
576.5126149173591
 30
0.0
 10
813.3880633470627
 20
576.4766646591456
 30
0.0
 10
812.6987396482048
 20
576.4407106695917
 30
0.0
 10
812.3538200109016
 20
576.4272316105493
 30
0.0
 10
811.9509518415692
 20
576.4193635454577
 30
0.0
 10
811.7494007053253
 20
576.4173959933091
 30
0.0
 10
811.6485956709246
 20
576.416904207396
 30
0.0
 10
811.6053871766526
 20
576.4167989193388
 30
0.0
 10
811.5837818715015
 20
576.4167638595956
 30
0.0
 10
811.5765443484809
 20
576.4167550771404
 30
0.0
 10
811.562227502395
 20
576.4167434939425
 30
0.0
 10
811.5550690784842
 20
576.4167405981447
 30
0.0
 10
811.5479106537053
 20
576.4167405981447
 30
0.0
  0
SPLINE
  5
171
330
1F
100
AcDbEntity
  8
1
  6
Continuous
 62
    30
370
    13
100
AcDbSpline
210
0.0
220
0.0
230
1.0
 70
     8
 71
     3
 72
    44
 73
    40
 74
     0
 42
0.000000001
 43
0.0000000001
 40
0.0
 40
0.0
 40
0.0
 40
0.0
 40
0.0624999999999996
 40
0.0624999999999996
 40
0.1249999999999992
 40
0.1249999999999992
 40
0.1874999999999988
 40
0.1874999999999988
 40
0.2187499999999984
 40
0.2343749999999977
 40
0.2343749999999977
 40
0.249999999999997
 40
0.249999999999997
 40
0.3124999999999967
 40
0.3124999999999967
 40
0.3749999999999963
 40
0.3749999999999963
 40
0.4374999999999959
 40
0.4374999999999959
 40
0.4687499999999954
 40
0.4843749999999954
 40
0.4843749999999954
 40
0.4999999999999955
 40
0.4999999999999955
 40
0.5624999999999959
 40
0.5624999999999959
 40
0.6249999999999962
 40
0.6249999999999962
 40
0.6874999999999966
 40
0.6874999999999966
 40
0.749999999999997
 40
0.749999999999997
 40
0.7812499999999973
 40
0.7812499999999973
 40
0.8124999999999977
 40
0.8124999999999977
 40
0.8749999999999984
 40
0.8749999999999984
 40
1.0
 40
1.0
 40
1.0
 40
1.0
 10
782.3770665094743
 20
582.9417250265191
 30
0.0
 10
782.5423143650802
 20
582.6228542971686
 30
0.0
 10
782.711996507368
 20
582.3158435265811
 30
0.0
 10
783.0624367294902
 20
581.7251031618688
 30
0.0
 10
783.2431963178893
 20
581.4413784931523
 30
0.0
 10
783.6181412192709
 20
580.8970919412022
 30
0.0
 10
783.8123277655859
 20
580.6365334371251
 30
0.0
 10
784.115512732401
 20
580.2631173548154
 30
0.0
 10
784.2700824829326
 20
580.0807664482239
 30
0.0
 10
784.4294693075791
 20
579.9049713800669
 30
0.0
 10
784.5368370519705
 20
579.789234289629
 30
0.0
 10
784.5911310101119
 20
579.7320406289102
 30
0.0
 10
784.8643377337296
 20
579.4508789285817
 30
0.0
 10
785.0890470422441
 20
579.2406564993091
 30
0.0
 10
785.5520369914392
 20
578.8475988484442
 30
0.0
 10
785.7903166284008
 20
578.6647661695312
 30
0.0
 10
786.2815037254607
 20
578.3246525416168
 30
0.0
 10
786.5344102232092
 20
578.1673731842162
 30
0.0
 10
786.9253866986525
 20
577.9493337933083
 30
0.0
 10
787.1237769651291
 20
577.8447852486794
 30
0.0
 10
787.3266234740386
 20
577.746711781836
 30
0.0
 10
787.4628550696345
 20
577.6827431781026
 30
0.0
 10
787.5315056424545
 20
577.6514505380261
 30
0.0
 10
787.8769037156051
 20
577.4986269382334
 30
0.0
 10
788.1584822958004
 20
577.3886930178933
 30
0.0
 10
788.7322616745756
 20
577.19051030339
 30
0.0
 10
789.0244611417959
 20
577.1022644536099
 30
0.0
 10
789.6194897335512
 20
576.9448796350401
 30
0.0
 10
789.9223179145037
 20
576.875742952004
 30
0.0
 10
790.5385541347716
 20
576.7542995846591
 30
0.0
 10
790.851961502508
 20
576.7019947219857
 30
0.0
 10
791.3299450275626
 20
576.6346325893807
 30
0.0
 10
791.490599656195
 20
576.6140277170828
 30
0.0
 10
791.8144601768796
 20
576.5762904201595
 30
0.0
 10
791.9772805418643
 20
576.559202173989
 30
0.0
 10
792.4683905676723
 20
576.5128612811568
 30
0.0
 10
792.7993288909635
 20
576.4885243519159
 30
0.0
 10
793.8025726695947
 20
576.4321758789622
 30
0.0
 10
794.4852980678605
 20
576.4167405981447
 30
0.0
 10
795.1815523520994
 20
576.4167405981447
 30
0.0
  0
SPLINE
  5
172
330
1F
100
AcDbEntity
  8
1
  6
Continuous
 62
    30
370
    13
100
AcDbSpline
210
0.0
220
0.0
230
1.0
 70
     8
 71
     3
 72
    47
 73
    43
 74
     0
 42
0.000000001
 43
0.0000000001
 40
0.0
 40
0.0
 40
0.0
 40
0.0
 40
0.1250000000000024
 40
0.1250000000000024
 40
0.1875000000000034
 40
0.1875000000000034
 40
0.2500000000000043
 40
0.2500000000000043
 40
0.3125000000000053
 40
0.3125000000000053
 40
0.3750000000000063
 40
0.3750000000000063
 40
0.3906250000000062
 40
0.3906250000000062
 40
0.406250000000006
 40
0.406250000000006
 40
0.4375000000000054
 40
0.4375000000000054
 40
0.5000000000000042
 40
0.5000000000000042
 40
0.562500000000003
 40
0.562500000000003
 40
0.6250000000000018
 40
0.6250000000000018
 40
0.6562500000000009
 40
0.6562500000000009
 40
0.6718750000000008
 40
0.6718750000000008
 40
0.6796875000000004
 40
0.6796875000000004
 40
0.6875000000000002
 40
0.7499999999999999
 40
0.7499999999999999
 40
0.8124999999999997
 40
0.8124999999999997
 40
0.8749999999999994
 40
0.8749999999999994
 40
0.9062499999999994
 40
0.9062499999999994
 40
0.9374999999999993
 40
0.9374999999999993
 40
1.0
 40
1.0
 40
1.0
 40
1.0
 10
827.9142689553112
 20
576.4167405981447
 30
0.0
 10
828.6104736283557
 20
576.4167405981447
 30
0.0
 10
829.2913433107123
 20
576.4321973321174
 30
0.0
 10
830.2890379603357
 20
576.4880422373556
 30
0.0
 10
830.6176656682902
 20
576.5121177308071
 30
0.0
 10
831.2669268367945
 20
576.5730326761914
 30
0.0
 10
831.5875599838118
 20
576.6098701935161
 30
0.0
 10
832.2207085014027
 20
576.6983880271582
 30
0.0
 10
832.5332233995547
 20
576.7500658516803
 30
0.0
 10
833.1500202204317
 20
576.8706478948072
 30
0.0
 10
833.4543014226457
 20
576.9395488548683
 30
0.0
 10
833.8294514622888
 20
577.0381751113932
 30
0.0
 10
833.9042214937215
 20
577.0585264641161
 30
0.0
 10
834.0532406768025
 20
577.1005294531067
 30
0.0
 10
834.1274875167157
 20
577.1221820630303
 30
0.0
 10
834.3487184839
 20
577.1889360822886
 30
0.0
 10
834.4944368283715
 20
577.2359006517107
 30
0.0
 10
834.9263268983943
 20
577.3845407719997
 30
0.0
 10
835.2072298207667
 20
577.4939576448156
 30
0.0
 10
835.7552938352594
 20
577.735473001957
 30
0.0
 10
836.0224537361024
 20
577.8675701126475
 30
0.0
 10
836.5434724975312
 20
578.1566574451838
 30
0.0
 10
836.7973298956998
 20
578.3136458046472
 30
0.0
 10
837.1686032597627
 20
578.5696267356811
 30
0.0
 10
837.2907771099116
 20
578.6583720514795
 30
0.0
 10
837.4717354249566
 20
578.7968663297615
 30
0.0
 10
837.5316712350144
 20
578.8439272911639
 30
0.0
 10
837.6210097811065
 20
578.9158955936047
 30
0.0
 10
837.6506919264759
 20
578.9401123974685
 30
0.0
 10
837.7097351595339
 20
578.9888973616315
 30
0.0
 10
837.9741378151375
 20
579.2101327802725
 30
0.0
 10
838.227058073806
 20
579.4467275807222
 30
0.0
 10
838.6605372110666
 20
579.8920337990156
 30
0.0
 10
838.869199008278
 20
580.1270313478393
 30
0.0
 10
839.2724323168757
 20
580.6221873302272
 30
0.0
 10
839.4670046944965
 20
580.8823426083163
 30
0.0
 10
839.7498863705865
 20
581.2918925429286
 30
0.0
 10
839.8426844586946
 20
581.4316299757558
 30
0.0
 10
840.0255567249385
 20
581.717642637333
 30
0.0
 10
840.1156457115459
 20
581.8639425630109
 30
0.0
 10
840.3821393464951
 20
582.3126719187245
 30
0.0
 10
840.5531326145455
 20
582.6221319750946
 30
0.0
 10
840.7187547979363
 20
582.941725026519
 30
0.0
  0
SPLINE
  5
173
330
1F
100
AcDbEntity
  8
1
  6
Continuous
 62
    30
370
    13
100
AcDbSpline
210
0.0
220
0.0
230
1.0
 70
     8
 71
     3
 72
    48
 73
    44
 74
     0
 42
0.000000001
 43
0.0000000001
 40
0.0
 40
0.0
 40
0.0
 40
0.0
 40
0.0625000000000017
 40
0.0625000000000017
 40
0.0703125000000016
 40
0.0703125000000016
 40
0.0781250000000016
 40
0.0937500000000016
 40
0.1250000000000015
 40
0.1250000000000015
 40
0.1875000000000012
 40
0.1875000000000012
 40
0.2500000000000011
 40
0.2500000000000011
 40
0.3125000000000008
 40
0.3125000000000008
 40
0.3281250000000007
 40
0.3281250000000007
 40
0.3437500000000007
 40
0.3437500000000007
 40
0.3750000000000002
 40
0.3750000000000002
 40
0.437499999999999
 40
0.437499999999999
 40
0.4999999999999978
 40
0.4999999999999978
 40
0.5624999999999966
 40
0.5624999999999966
 40
0.5937499999999959
 40
0.6093749999999956
 40
0.6171874999999957
 40
0.6171874999999957
 40
0.6249999999999958
 40
0.6249999999999958
 40
0.6874999999999966
 40
0.6874999999999966
 40
0.7499999999999972
 40
0.7499999999999972
 40
0.812499999999998
 40
0.812499999999998
 40
0.8749999999999988
 40
0.8749999999999988
 40
1.0
 40
1.0
 40
1.0
 40
1.0
 10
845.4237296599091
 20
579.7080190005412
 30
0.0
 10
845.2499918436067
 20
579.2572023411167
 30
0.0
 10
845.070261447944
 20
578.8220452835338
 30
0.0
 10
844.8596443944404
 20
578.3496121558784
 30
0.0
 10
844.836132569534
 20
578.2973745594933
 30
0.0
 10
844.7889535348077
 20
578.1935590474724
 30
0.0
 10
844.7179224816216
 20
578.0387591360945
 30
0.0
 10
844.5502931912795
 20
577.6839563497626
 30
0.0
 10
844.4031902287309
 20
577.3905879554227
 30
0.0
 10
844.1039420141557
 20
576.817680076183
 30
0.0
 10
843.8977209177086
 20
576.4541603610817
 30
0.0
 10
843.4692563708836
 20
575.761855712398
 30
0.0
 10
843.247013813996
 20
575.4330773798845
 30
0.0
 10
842.7838949448095
 20
574.8087233656837
 30
0.0
 10
842.5430196941362
 20
574.5131519830194
 30
0.0
 10
842.2286071866151
 20
574.1637268216921
 30
0.0
 10
842.1650585594841
 20
574.0948445453286
 30
0.0
 10
842.0365863249428
 20
573.9590705687594
 30
0.0
 10
841.9716129675566
 20
573.8921317891943
 30
0.0
 10
841.775364477575
 20
573.6950653141588
 30
0.0
 10
841.642545062531
 20
573.5684478763877
 30
0.0
 10
841.2378397180746
 20
573.2022024357755
 30
0.0
 10
840.9597028402161
 20
572.9761640899532
 30
0.0
 10
840.385351163986
 20
572.557232830805
 30
0.0
 10
840.0891380615857
 20
572.3643452916077
 30
0.0
 10
839.4773296168071
 20
572.0091122152961
 30
0.0
 10
839.1617356895445
 20
571.8467705209657
 30
0.0
 10
838.6728723376121
 20
571.6244752928471
 30
0.0
 10
838.4245730160502
 20
571.5186356106545
 30
0.0
 10
838.1279197620667
 20
571.4041070359309
 30
0.0
 10
837.9992672740015
 20
571.356906984226
 30
0.0
 10
837.9131597856049
 20
571.3258550695303
 30
0.0
 10
837.8699389018785
 20
571.3105376683719
 30
0.0
 10
837.4800703450719
 20
571.1747536316832
 30
0.0
 10
837.1261047822286
 20
571.068353246475
 30
0.0
 10
836.4029460954922
 20
570.8807729472735
 30
0.0
 10
836.0337540955675
 20
570.7995977150356
 30
0.0
 10
835.2797731969105
 20
570.6595572664927
 30
0.0
 10
834.8949851831434
 20
570.6006955798138
 30
0.0
 10
834.1094370631864
 20
570.5027000343887
 30
0.0
 10
833.7086777114986
 20
570.4635689512397
 30
0.0
 10
832.4818336429873
 20
570.3722467906688
 30
0.0
 10
831.6312213724226
 20
570.3460848206997
 30
0.0
 10
830.745918577011
 20
570.3460848206997
 30
0.0
  0
SPLINE
  5
174
330
1F
100
AcDbEntity
  8
1
  6
Continuous
 62
    30
370
    13
100
AcDbSpline
210
0.0
220
0.0
230
1.0
 70
     8
 71
     3
 72
    45
 73
    41
 74
     0
 42
0.000000001
 43
0.0000000001
 40
0.0
 40
0.0
 40
0.0
 40
0.0
 40
0.124999999999997
 40
0.124999999999997
 40
0.1874999999999952
 40
0.1874999999999952
 40
0.2031249999999948
 40
0.2031249999999948
 40
0.2187499999999943
 40
0.2187499999999943
 40
0.2499999999999938
 40
0.2499999999999938
 40
0.312499999999993
 40
0.312499999999993
 40
0.3749999999999921
 40
0.3749999999999921
 40
0.4374999999999913
 40
0.4374999999999913
 40
0.468749999999991
 40
0.468749999999991
 40
0.484374999999991
 40
0.484374999999991
 40
0.4921874999999908
 40
0.4921874999999908
 40
0.4999999999999908
 40
0.5624999999999919
 40
0.5624999999999919
 40
0.6249999999999931
 40
0.6249999999999931
 40
0.6874999999999942
 40
0.6874999999999942
 40
0.7499999999999954
 40
0.7499999999999954
 40
0.8124999999999966
 40
0.8124999999999966
 40
0.8749999999999978
 40
0.8749999999999978
 40
0.9374999999999989
 40
0.9374999999999989
 40
1.0
 40
1.0
 40
1.0
 40
1.0
 10
792.3499027303995
 20
570.3460848206997
 30
0.0
 10
791.4653301232426
 20
570.3460848206997
 30
0.0
 10
790.6121135637665
 20
570.372163703007
 30
0.0
 10
789.377110395617
 20
570.4644285729262
 30
0.0
 10
788.9729213150508
 20
570.5040590313874
 30
0.0
 10
788.4768489655796
 20
570.566352703833
 30
0.0
 10
788.3780927733944
 20
570.5794499182906
 30
0.0
 10
788.1814926025412
 20
570.6069658442797
 30
0.0
 10
788.0836779685765
 20
570.6213813094423
 30
0.0
 10
787.7921806616141
 20
570.6665803370722
 30
0.0
 10
787.6002563607058
 20
570.6993419836992
 30
0.0
 10
787.0315742825635
 20
570.8059234878007
 30
0.0
 10
786.6619069764125
 20
570.8880326497919
 30
0.0
 10
785.9408005544069
 20
571.0766938362209
 30
0.0
 10
785.5893624814823
 20
571.1832428075575
 30
0.0
 10
784.9040353975719
 20
571.4233800839386
 30
0.0
 10
784.570147630872
 20
571.5569644423072
 30
0.0
 10
784.0819422292988
 20
571.7798466641643
 30
0.0
 10
783.9213110818966
 20
571.857894955146
 30
0.0
 10
783.6834482365364
 20
571.9809119745285
 30
0.0
 10
783.6046745586973
 20
572.0229086755338
 30
0.0
 10
783.4872755043963
 20
572.0874319857204
 30
0.0
 10
783.448266879648
 20
572.1091962335383
 30
0.0
 10
783.3706270976345
 20
572.1531691218938
 30
0.0
 10
783.0228048123099
 20
572.3531252381429
 30
0.0
 10
782.6888613870352
 20
572.5718964632316
 30
0.0
 10
782.1154265949298
 20
572.9924384714182
 30
0.0
 10
781.8388317719935
 20
573.2185135824157
 30
0.0
 10
781.304158473385
 20
573.7044791099429
 30
0.0
 10
781.0460815288529
 20
573.9643644622577
 30
0.0
 10
780.5466357703505
 20
574.5205996045593
 30
0.0
 10
780.3052675193728
 20
574.8169434599034
 30
0.0
 10
779.8373041191899
 20
575.449372640451
 30
0.0
 10
779.613820223286
 20
575.7812508441755
 30
0.0
 10
779.1847679966783
 20
576.4769751249684
 30
0.0
 10
778.9792006184855
 20
576.8408171824555
 30
0.0
 10
778.5830880218562
 20
577.6015094995321
 30
0.0
 10
778.3925433285818
 20
577.9983534645713
 30
0.0
 10
778.0237443363767
 20
578.826645411943
 30
0.0
 10
777.845490047799
 20
579.2580830612311
 30
0.0
 10
777.6720916475015
 20
579.7080190005412
 30
0.0
  0
SPLINE
  5
175
330
1F
100
AcDbEntity
  8
1
  6
Continuous
 62
    30
370
    18
100
AcDbSpline
210
0.0
220
0.0
230
1.0
 70
     8
 71
     3
 72
    32
 73
    28
 74
     0
 42
0.000000001
 43
0.0000000001
 40
0.0
 40
0.0
 40
0.0
 40
0.0
 40
0.0239355502824864
 40
0.0528377802716176
 40
0.0832886056876863
 40
0.1151900052186231
 40
0.1442728878057075
 40
0.1746914416475372
 40
0.2096770576219812
 40
0.2462051288138937
 40
0.284242631852722
 40
0.3236602063275562
 40
0.3643113327681694
 40
0.4060329907581774
 40
0.4486503361851766
 40
0.4919835174746018
 40
0.5358579688892124
 40
0.5798346025487345
 40
0.6263292961255694
 40
0.6738079951788557
 40
0.7223470312390817
 40
0.7719660640657032
 40
0.8226400371882863
 40
0.8742917110966882
 40
0.9267876087402275
 40
0.9797442891464742
 40
1.0
 40
1.0
 40
1.0
 40
1.0
 10
369.0206428056013
 20
181.0030475561095
 30
0.0
 10
368.961163583915
 20
180.9578378356898
 30
0.0
 10
368.8190810650191
 20
180.8521844010208
 30
0.0
 10
368.5540392132061
 20
180.6628826032367
 30
0.0
 10
368.2254783760818
 20
180.4357947186135
 30
0.0
 10
367.8596990960652
 20
180.1895414549919
 30
0.0
 10
367.4599939368402
 20
179.9257470226234
 30
0.0
 10
367.01210171479
 20
179.6322990532547
 30
0.0
 10
366.5017259432489
 20
179.2984847041102
 30
0.0
 10
365.9243686492604
 20
178.9191708148547
 30
0.0
 10
365.2985879748054
 20
178.5037065440892
 30
0.0
 10
364.6282421934743
 20
178.0513588664673
 30
0.0
 10
363.918731011373
 20
177.5620393517714
 30
0.0
 10
363.1761866949773
 20
177.035898799983
 30
0.0
 10
362.4073863189296
 20
176.4734020516644
 30
0.0
 10
361.6196299041972
 20
175.8754081675848
 30
0.0
 10
360.8216933481261
 20
175.2440816100219
 30
0.0
 10
360.0082064384344
 20
174.5703896962483
 30
0.0
 10
359.1804890250087
 20
173.8515734204394
 30
0.0
 10
358.3367134286569
 20
173.0810363744111
 30
0.0
 10
357.4895596462744
 20
172.2656309913267
 30
0.0
 10
356.6427586458404
 20
171.4042347301712
 30
0.0
 10
355.8013027142345
 20
170.4964292629925
 30
0.0
 10
354.9704019809196
 20
169.5432496900284
 30
0.0
 10
354.159938216979
 20
168.546173991456
 30
0.0
 10
353.5336407352087
 20
167.729441861018
 30
0.0
 10
353.1886271407857
 20
167.2395665776432
 30
0.0
 10
353.0943373463996
 20
167.1031555856958
 30
0.0
  0
SPLINE
  5
176
330
1F
100
AcDbEntity
  8
1
  6
Continuous
 62
    30
370
    18
100
AcDbSpline
210
0.0
220
0.0
230
1.0
 70
     8
 71
     3
 72
    32
 73
    28
 74
     0
 42
0.000000001
 43
0.0000000001
 40
0.0
 40
0.0
 40
0.0
 40
0.0
 40
0.0239355502824846
 40
0.0528377802716161
 40
0.0832886056876806
 40
0.1151900052186039
 40
0.1442728878056848
 40
0.1746914416475107
 40
0.2096770576219581
 40
0.2462051288138632
 40
0.2842426318526852
 40
0.3236602063274991
 40
0.3643113327681115
 40
0.4060329907581085
 40
0.4486503361851189
 40
0.4919835174745423
 40
0.5358579688891708
 40
0.5798346025486888
 40
0.6263292961255018
 40
0.6738079951787884
 40
0.7223470312390123
 40
0.7719660640656281
 40
0.8226400371882155
 40
0.87429171109661
 40
0.9267876087401574
 40
0.9797442891464014
 40
1.0
 40
1.0
 40
1.0
 40
1.0
 10
391.307146865881
 20
114.6788846220142
 30
0.0
 10
391.3666260875672
 20
114.7240943424339
 30
0.0
 10
391.5087086064631
 20
114.8297477771028
 30
0.0
 10
391.773750458276
 20
115.019049574887
 30
0.0
 10
392.1023112954003
 20
115.2461374595101
 30
0.0
 10
392.4680905754169
 20
115.4923907231316
 30
0.0
 10
392.8677957346416
 20
115.7561851555
 30
0.0
 10
393.3156879566918
 20
116.0496331248687
 30
0.0
 10
393.8260637282329
 20
116.3834474740132
 30
0.0
 10
394.4034210222213
 20
116.7627613632687
 30
0.0
 10
395.0292016966762
 20
117.178225634034
 30
0.0
 10
395.6995474780071
 20
117.6305733116558
 30
0.0
 10
396.4090586601081
 20
118.1198928263516
 30
0.0
 10
397.1516029765038
 20
118.6460333781399
 30
0.0
 10
397.9204033525514
 20
119.2085301264585
 30
0.0
 10
398.7081597672841
 20
119.8065240105381
 30
0.0
 10
399.5060963233552
 20
120.437850568101
 30
0.0
 10
400.3195832330469
 20
121.1115424818746
 30
0.0
 10
401.1473006464724
 20
121.8303587576834
 30
0.0
 10
401.9910762428241
 20
122.6008958037115
 30
0.0
 10
402.8382300252065
 20
123.4163011867958
 30
0.0
 10
403.6850310256405
 20
124.2776974479512
 30
0.0
 10
404.5264869572464
 20
125.1855029151299
 30
0.0
 10
405.3573876905614
 20
126.1386824880939
 30
0.0
 10
406.1678514545021
 20
127.1357581866663
 30
0.0
 10
406.7941489362728
 20
127.9524903171047
 30
0.0
 10
407.1391625306961
 20
128.44236560048
 30
0.0
 10
407.2334523250825
 20
128.5787765924279
 30
0.0
  0
SPLINE
  5
177
330
1F
100
AcDbEntity
  8
1
  6
Continuous
 62
    30
370
    18
100
AcDbSpline
210
0.0
220
0.0
230
1.0
 70
     8
 71
     3
 72
    32
 73
    28
 74
     0
 42
0.000000001
 43
0.0000000001
 40
0.0
 40
0.0
 40
0.0
 40
0.0
 40
0.0064586516672366
 40
0.061290960308369
 40
0.1149061525219638
 40
0.167350328601995
 40
0.2192398988094663
 40
0.2703749351597929
 40
0.3206090212029622
 40
0.3698555128924187
 40
0.4180864439870702
 40
0.4653260763452819
 40
0.5067325609798928
 40
0.5499395358313627
 40
0.5927780675351698
 40
0.6350800191734357
 40
0.6766597634940914
 40
0.7173294823672894
 40
0.7569075566555501
 40
0.7952254046687586
 40
0.8321318830598748
 40
0.8597238209508398
 40
0.8872775627809981
 40
0.9154079763138027
 40
0.9480015648145548
 40
0.9793231033019927
 40
1.0
 40
1.0
 40
1.0
 40
1.0
 10
407.2357357358542
 20
167.1047577905089
 30
0.0
 10
407.2058523862535
 20
167.1483654135399
 30
0.0
 10
406.9209540274695
 20
167.5612269892797
 30
0.0
 10
406.3509146272056
 20
168.3099802350508
 30
0.0
 10
405.5296625983273
 20
169.3383977586824
 30
0.0
 10
404.6875303204222
 20
170.3163634409415
 30
0.0
 10
403.8313727814335
 20
171.2506159266002
 30
0.0
 10
402.9628363748802
 20
172.1422721565987
 30
0.0
 10
402.0890458430514
 20
172.989385576178
 30
0.0
 10
401.2158134521443
 20
173.7909156122162
 30
0.0
 10
400.3480832238331
 20
174.5468559234458
 30
0.0
 10
399.5191942293779
 20
175.2335783758881
 30
0.0
 10
398.7172264381576
 20
175.8680867120686
 30
0.0
 10
397.9436713776666
 20
176.4558921673303
 30
0.0
 10
397.1704893910657
 20
177.02207049666
 30
0.0
 10
396.4173561336068
 20
177.5559742984403
 30
0.0
 10
395.6916975476998
 20
178.0564479142222
 30
0.0
 10
395.0007461478083
 20
178.5225142250873
 30
0.0
 10
394.3513664050999
 20
178.9533604569161
 30
0.0
 10
393.7493289872596
 20
179.3486437964399
 30
0.0
 10
393.2395453775056
 20
179.6820904552048
 30
0.0
 10
392.8073370434479
 20
179.9655059051587
 30
0.0
 10
392.4482222069153
 20
180.2029750144046
 30
0.0
 10
392.0955536681267
 20
180.4406044284324
 30
0.0
 10
391.7648168079894
 20
180.669311849694
 30
0.0
 10
391.4966764763482
 20
180.8611793596422
 30
0.0
 10
391.3613026094251
 20
180.9626634652423
 30
0.0
 10
391.311442786502
 20
181.0008495895831
 30
0.0
  0
SPLINE
  5
178
330
1F
100
AcDbEntity
  8
1
  6
Continuous
 62
    30
370
    18
100
AcDbSpline
210
0.0
220
0.0
230
1.0
 70
     8
 71
     3
 72
    32
 73
    28
 74
     0
 42
0.000000001
 43
0.0000000001
 40
0.0
 40
0.0
 40
0.0
 40
0.0
 40
0.0064586516672649
 40
0.0612909603084023
 40
0.1149061525220095
 40
0.1673503286020168
 40
0.2192398988094972
 40
0.2703749351598213
 40
0.3206090212029938
 40
0.3698555128924484
 40
0.4180864439871081
 40
0.4653260763453078
 40
0.5067325609799147
 40
0.5499395358313693
 40
0.592778067535185
 40
0.6350800191734564
 40
0.6766597634941176
 40
0.7173294823673079
 40
0.7569075566555644
 40
0.7952254046687822
 40
0.8321318830598984
 40
0.8597238209508693
 40
0.8872775627810257
 40
0.9154079763138327
 40
0.9480015648145852
 40
0.9793231033020259
 40
1.0
 40
1.0
 40
1.0
 40
1.0
 10
353.0920539356279
 20
128.5771743876148
 30
0.0
 10
353.1219372852287
 20
128.5335667645836
 30
0.0
 10
353.4068356440129
 20
128.1207051888437
 30
0.0
 10
353.976875044277
 20
127.3719519430722
 30
0.0
 10
354.7981270731554
 20
126.3435344194407
 30
0.0
 10
355.6402593510604
 20
125.3655687371816
 30
0.0
 10
356.496416890049
 20
124.431316251523
 30
0.0
 10
357.3649532966024
 20
123.5396600215245
 30
0.0
 10
358.2387438284312
 20
122.6925466019452
 30
0.0
 10
359.1119762193384
 20
121.891016565907
 30
0.0
 10
359.9797064476495
 20
121.1350762546774
 30
0.0
 10
360.8085954421047
 20
120.4483538022351
 30
0.0
 10
361.6105632333248
 20
119.8138454660548
 30
0.0
 10
362.3841182938158
 20
119.2260400107932
 30
0.0
 10
363.1573002804166
 20
118.6598616814635
 30
0.0
 10
363.9104335378757
 20
118.1259578796831
 30
0.0
 10
364.6360921237826
 20
117.6254842639013
 30
0.0
 10
365.3270435236741
 20
117.1594179530362
 30
0.0
 10
365.9764232663825
 20
116.7285717212074
 30
0.0
 10
366.5784606842228
 20
116.3332883816836
 30
0.0
 10
367.0882442939769
 20
115.9998417229187
 30
0.0
 10
367.5204526280345
 20
115.7164262729647
 30
0.0
 10
367.8795674645671
 20
115.4789571637188
 30
0.0
 10
368.2322360033557
 20
115.241327749691
 30
0.0
 10
368.5629728634929
 20
115.0126203284295
 30
0.0
 10
368.831113195134
 20
114.8207528184813
 30
0.0
 10
368.966487062057
 20
114.7192687128814
 30
0.0
 10
369.0163468849801
 20
114.6810825885406
 30
0.0
  0
SPLINE
  5
179
330
1F
100
AcDbEntity
  8
1
  6
Continuous
 62
    30
370
    18
100
AcDbSpline
210
0.0
220
0.0
230
1.0
 70
     8
 71
     3
 72
    23
 73
    19
 74
     0
 42
0.000000001
 43
0.0000000001
 40
0.0
 40
0.0
 40
0.0
 40
0.0
 40
0.0182800594120966
 40
0.0610917406788978
 40
0.0992444172049364
 40
0.1328168830492357
 40
0.1633096894473659
 40
0.19293337814009
 40
0.2239122882360619
 40
0.2583382883617719
 40
0.2995538036795221
 40
0.3525578621827111
 40
0.4275103567557527
 40
0.5607212899705037
 40
0.6658228530449539
 40
0.7758947239038259
 40
0.8886393385155587
 40
1.0
 40
1.0
 40
1.0
 40
1.0
 10
372.5941867073446
 20
183.0324151119263
 30
0.0
 10
372.5457071595371
 20
183.0233882247771
 30
0.0
 10
372.3851704472011
 20
182.9903636538112
 30
0.0
 10
372.1325649638779
 20
182.9157456160165
 30
0.0
 10
371.8530176314867
 20
182.8178222682663
 30
0.0
 10
371.6207768810924
 20
182.7212573109713
 30
0.0
 10
371.4292949240015
 20
182.6317306642311
 30
0.0
 10
371.2691203296324
 20
182.5495545460345
 30
0.0
 10
371.1312510224191
 20
182.4734779031199
 30
0.0
 10
371.0066059727992
 20
182.4005170583374
 30
0.0
 10
370.8851536769434
 20
182.3258514325571
 30
0.0
 10
370.7521464177672
 20
182.2405655067488
 30
0.0
 10
370.5691712210923
 20
182.1187399408176
 30
0.0
 10
370.3517063823084
 20
181.9685977924147
 30
0.0
 10
370.0697774123762
 20
181.7695338123724
 30
0.0
 10
369.7664759440625
 20
181.551076895108
 30
0.0
 10
369.4205374610741
 20
181.2974741979803
 30
0.0
 10
369.1646804662349
 20
181.1064937012232
 30
0.0
 10
369.0315675901501
 20
181.0064314145127
 30
0.0
  0
SPLINE
  5
17A
330
1F
100
AcDbEntity
  8
1
  6
Continuous
 62
    30
370
    18
100
AcDbSpline
210
0.0
220
0.0
230
1.0
 70
     8
 71
     3
 72
    23
 73
    19
 74
     0
 42
0.000000001
 43
0.0000000001
 40
0.0
 40
0.0
 40
0.0
 40
0.0
 40
0.0235701653667324
 40
0.1372831538866624
 40
0.2500973061047657
 40
0.3628184526306708
 40
0.4762966805188676
 40
0.5887719890170339
 40
0.6796204609849502
 40
0.7313290665750797
 40
0.7694448594360723
 40
0.8035477390037193
 40
0.8362542722201761
 40
0.8692578405469479
 40
0.9055531555063271
 40
0.9476945734357207
 40
0.9963160457640201
 40
1.0
 40
1.0
 40
1.0
 40
1.0
 10
391.2995020919884
 20
181.0035510070226
 30
0.0
 10
391.2703298446267
 20
181.0256654062413
 30
0.0
 10
391.1025736091443
 20
181.1525571339317
 30
0.0
 10
390.8284907617248
 20
181.3552881486312
 30
0.0
 10
390.4845276860927
 20
181.6068726756503
 30
0.0
 10
390.1805042109479
 20
181.82467777446
 30
0.0
 10
389.9200563130959
 20
182.0075958525749
 30
0.0
 10
389.7011629351237
 20
182.1575046332472
 30
0.0
 10
389.5199995305667
 20
182.2768763343104
 30
0.0
 10
389.3617682894113
 20
182.3757274256148
 30
0.0
 10
389.2244054427502
 20
182.4570762535586
 30
0.0
 10
389.0775757621537
 20
182.5388778595033
 30
0.0
 10
388.9045247604869
 20
182.6281155419364
 30
0.0
 10
388.6958764827
 20
182.7252695899467
 30
0.0
 10
388.4412387785435
 20
182.8299405759922
 30
0.0
 10
388.1284076592362
 20
182.9344098112368
 30
0.0
 10
387.8873647826892
 20
183.0051575396689
 30
0.0
 10
387.7489842612068
 20
183.0296718105803
 30
0.0
 10
387.7392188461173
 20
183.0313554159878
 30
0.0
  0
SPLINE
  5
17B
330
1F
100
AcDbEntity
  8
1
  6
Continuous
 62
    30
370
    18
100
AcDbSpline
210
0.0
220
0.0
230
1.0
 70
     8
 71
     3
 72
    23
 73
    19
 74
     0
 42
0.000000001
 43
0.0000000001
 40
0.0
 40
0.0
 40
0.0
 40
0.0
 40
0.0182800594119824
 40
0.0610917406787327
 40
0.0992444172047898
 40
0.1328168830490604
 40
0.1633096894472789
 40
0.1929333781400322
 40
0.2239122882360396
 40
0.2583382883616883
 40
0.2995538036794606
 40
0.3525578621825265
 40
0.427510356755758
 40
0.5607212899703485
 40
0.6658228530447876
 40
0.7758947239037277
 40
0.8886393385154999
 40
1.0
 40
1.0
 40
1.0
 40
1.0
 10
387.7336029641376
 20
112.6495170661973
 30
0.0
 10
387.7820825119448
 20
112.6585439533465
 30
0.0
 10
387.9426192242805
 20
112.6915685243123
 30
0.0
 10
388.1952247076032
 20
112.7661865621069
 30
0.0
 10
388.4747720399944
 20
112.864109909857
 30
0.0
 10
388.7070127903889
 20
112.9606748671519
 30
0.0
 10
388.8984947474801
 20
113.0502015138923
 30
0.0
 10
389.0586693418496
 20
113.132377632089
 30
0.0
 10
389.1965386490629
 20
113.2084542750037
 30
0.0
 10
389.3211836986829
 20
113.2814151197862
 30
0.0
 10
389.4426359945384
 20
113.3560807455663
 30
0.0
 10
389.5756432537149
 20
113.4413666713749
 30
0.0
 10
389.7586184503897
 20
113.5631922373059
 30
0.0
 10
389.9760832891736
 20
113.7133343857088
 30
0.0
 10
390.2580122591056
 20
113.9123983657509
 30
0.0
 10
390.5613137274194
 20
114.1308552830154
 30
0.0
 10
390.9072522104079
 20
114.3844579801432
 30
0.0
 10
391.1631092052473
 20
114.5754384769004
 30
0.0
 10
391.2962220813321
 20
114.675500763611
 30
0.0
  0
SPLINE
  5
17C
330
1F
100
AcDbEntity
  8
1
  6
Continuous
 62
    30
370
    18
100
AcDbSpline
210
0.0
220
0.0
230
1.0
 70
     8
 71
     3
 72
    23
 73
    19
 74
     0
 42
0.000000001
 43
0.0000000001
 40
0.0
 40
0.0
 40
0.0
 40
0.0
 40
0.0235701653667471
 40
0.1372831538866583
 40
0.2500973061048077
 40
0.3628184526306966
 40
0.4762966805189348
 40
0.5887719890170369
 40
0.6796204609852664
 40
0.7313290665752229
 40
0.7694448594361644
 40
0.8035477390037818
 40
0.8362542722202471
 40
0.8692578405470289
 40
0.9055531555064573
 40
0.9476945734358574
 40
0.9963160457640617
 40
1.0
 40
1.0
 40
1.0
 40
1.0
 10
369.0282875794937
 20
114.678381171101
 30
0.0
 10
369.0574598268554
 20
114.6562667718824
 30
0.0
 10
369.2252160623378
 20
114.529375044192
 30
0.0
 10
369.4992989097574
 20
114.3266440294925
 30
0.0
 10
369.8432619853894
 20
114.0750595024733
 30
0.0
 10
370.1472854605343
 20
113.8572544036635
 30
0.0
 10
370.4077333583862
 20
113.6743363255487
 30
0.0
 10
370.6266267363587
 20
113.5244275448762
 30
0.0
 10
370.8077901409155
 20
113.4050558438131
 30
0.0
 10
370.9660213820714
 20
113.3062047525084
 30
0.0
 10
371.1033842287322
 20
113.2248559245648
 30
0.0
 10
371.2502139093286
 20
113.1430543186202
 30
0.0
 10
371.4232649109955
 20
113.0538166361871
 30
0.0
 10
371.6319131887827
 20
112.9566625881767
 30
0.0
 10
371.8865508929394
 20
112.8519916021312
 30
0.0
 10
372.1993820122466
 20
112.7475223668868
 30
0.0
 10
372.4404248887934
 20
112.6767746384543
 30
0.0
 10
372.5788054102754
 20
112.6522603675434
 30
0.0
 10
372.5885708253647
 20
112.6505767621359
 30
0.0
  0
SPLINE
  5
17D
330
1F
100
AcDbEntity
  8
1
  6
Continuous
 62
    30
370
    13
100
AcDbSpline
210
0.0
220
0.0
230
1.0
 70
     8
 71
     3
 72
    21
 73
    17
 74
     0
 42
0.000000001
 43
0.0000000001
 40
0.0
 40
0.0
 40
0.0
 40
0.0
 40
0.2499999999999943
 40
0.2499999999999943
 40
0.3749999999999934
 40
0.3749999999999934
 40
0.4999999999999925
 40
0.4999999999999925
 40
0.56249999999999
 40
0.593749999999989
 40
0.593749999999989
 40
0.6249999999999879
 40
0.6249999999999879
 40
0.749999999999992
 40
0.874999999999996
 40
1.0
 40
1.0
 40
1.0
 40
1.0
 10
392.7957117710917
 20
177.0118102332929
 30
0.0
 10
392.620722748502
 20
177.2008008294316
 30
0.0
 10
392.4631411692382
 20
177.3679665454783
 30
0.0
 10
392.2551832060151
 20
177.5850642227111
 30
0.0
 10
392.1906092103595
 20
177.6518066062272
 30
0.0
 10
392.0714801294023
 20
177.7736821659579
 30
0.0
 10
392.0169239348566
 20
177.8288165806749
 30
0.0
 10
391.9430965181442
 20
177.9024087970195
 30
0.0
 10
391.9081862090617
 20
177.936925317705
 30
0.0
 10
391.876391022421
 20
177.9679239446792
 30
0.0
 10
391.8559000919603
 20
177.9877952070761
 30
0.0
 10
391.8459994464869
 20
177.9973413746501
 30
0.0
 10
391.7983901469293
 20
178.0429626641874
 30
0.0
 10
391.7347325355227
 20
178.1020855332393
 30
0.0
 10
391.6769431320117
 20
178.149362874697
 30
0.0
 10
391.6638948357411
 20
178.1530274282035
 30
0.0
 10
391.6638948357411
 20
178.1477310104453
 30
0.0
  0
SPLINE
  5
17E
330
1F
100
AcDbEntity
  8
1
  6
Continuous
 62
    30
370
    13
100
AcDbSpline
210
0.0
220
0.0
230
1.0
 70
     8
 71
     3
 72
    22
 73
    18
 74
     0
 42
0.000000001
 43
0.0000000001
 40
0.0
 40
0.0
 40
0.0
 40
0.0
 40
0.1249999999999959
 40
0.1249999999999959
 40
0.2499999999999918
 40
0.3749999999999877
 40
0.4999999999999836
 40
0.4999999999999836
 40
0.5624999999999817
 40
0.5624999999999817
 40
0.5937499999999827
 40
0.5937499999999827
 40
0.6249999999999837
 40
0.6249999999999837
 40
0.7499999999999902
 40
0.7499999999999902
 40
1.0
 40
1.0
 40
1.0
 40
1.0
 10
391.6638948357411
 20
117.5342011676783
 30
0.0
 10
391.6638948357411
 20
117.5289164010494
 30
0.0
 10
391.6703896567973
 20
117.5307399972886
 30
0.0
 10
391.6958972349786
 20
117.5480947572455
 30
0.0
 10
391.7339237872774
 20
117.5791585053117
 30
0.0
 10
391.8275427463926
 20
117.6659977387339
 30
0.0
 10
391.9139407426036
 20
117.7505102029873
 30
0.0
 10
391.9876689918289
 20
117.8239323312001
 30
0.0
 10
392.0137684720356
 20
117.8501156094084
 30
0.0
 10
392.0549440002488
 20
117.8917113547775
 30
0.0
 10
392.0690111392812
 20
117.9059675476653
 30
0.0
 10
392.0978215390517
 20
117.9352564754814
 30
0.0
 10
392.1125680484388
 20
117.9502925743748
 30
0.0
 10
392.1878325655653
 20
118.0272591710167
 30
0.0
 10
392.2530391618977
 20
118.0946402499781
 30
0.0
 10
392.4626158104947
 20
118.3133964062964
 30
0.0
 10
392.6208975054823
 20
118.4813200886792
 30
0.0
 10
392.7957117710916
 20
118.6701219448308
 30
0.0
  0
SPLINE
  5
17F
330
1F
100
AcDbEntity
  8
1
  6
Continuous
 62
    30
370
    13
100
AcDbSpline
210
0.0
220
0.0
230
1.0
 70
     8
 71
     3
 72
    21
 73
    17
 74
     0
 42
0.000000001
 43
0.0000000001
 40
0.0
 40
0.0
 40
0.0
 40
0.0
 40
0.2500000000000013
 40
0.2500000000000013
 40
0.3750000000000036
 40
0.3750000000000036
 40
0.5000000000000058
 40
0.5000000000000058
 40
0.5625000000000084
 40
0.5937500000000095
 40
0.5937500000000095
 40
0.6250000000000108
 40
0.6250000000000108
 40
0.7500000000000072
 40
0.8750000000000036
 40
1.0
 40
1.0
 40
1.0
 40
1.0
 10
367.5320779003904
 20
118.6701219448308
 30
0.0
 10
367.7070669229801
 20
118.481131348692
 30
0.0
 10
367.8646485022439
 20
118.3139656326454
 30
0.0
 10
368.0726064654669
 20
118.0968679554126
 30
0.0
 10
368.1371804611226
 20
118.0301255718965
 30
0.0
 10
368.2563095420797
 20
117.9082500121658
 30
0.0
 10
368.3108657366255
 20
117.8531155974488
 30
0.0
 10
368.3846931533379
 20
117.7795233811042
 30
0.0
 10
368.4196034624204
 20
117.7450068604187
 30
0.0
 10
368.451398649061
 20
117.7140082334444
 30
0.0
 10
368.4718895795218
 20
117.6941369710475
 30
0.0
 10
368.4817902249952
 20
117.6845908034736
 30
0.0
 10
368.5293995245528
 20
117.6389695139362
 30
0.0
 10
368.5930571359594
 20
117.5798466448843
 30
0.0
 10
368.6508465394704
 20
117.5325693034266
 30
0.0
 10
368.663894835741
 20
117.5289047499202
 30
0.0
 10
368.663894835741
 20
117.5342011676784
 30
0.0
  0
SPLINE
  5
180
330
1F
100
AcDbEntity
  8
1
  6
Continuous
 62
    30
370
    13
100
AcDbSpline
210
0.0
220
0.0
230
1.0
 70
     8
 71
     3
 72
    22
 73
    18
 74
     0
 42
0.000000001
 43
0.0000000001
 40
0.0
 40
0.0
 40
0.0
 40
0.0
 40
0.1249999999999962
 40
0.1249999999999962
 40
0.2499999999999925
 40
0.3749999999999887
 40
0.4999999999999849
 40
0.4999999999999849
 40
0.5624999999999833
 40
0.5624999999999833
 40
0.5937499999999842
 40
0.5937499999999842
 40
0.6249999999999852
 40
0.6249999999999852
 40
0.7499999999999915
 40
0.7499999999999915
 40
1.0
 40
1.0
 40
1.0
 40
1.0
 10
368.6638948357411
 20
178.1477310104453
 30
0.0
 10
368.6638948357411
 20
178.1530157770743
 30
0.0
 10
368.657400014685
 20
178.151192180835
 30
0.0
 10
368.6318924365036
 20
178.1338374208782
 30
0.0
 10
368.5938658842048
 20
178.102773672812
 30
0.0
 10
368.5002469250897
 20
178.0159344393898
 30
0.0
 10
368.4138489288786
 20
177.9314219751364
 30
0.0
 10
368.3401206796534
 20
177.8579998469236
 30
0.0
 10
368.3140211994466
 20
177.8318165687153
 30
0.0
 10
368.2728456712335
 20
177.7902208233462
 30
0.0
 10
368.258778532201
 20
177.7759646304584
 30
0.0
 10
368.2299681324305
 20
177.7466757026422
 30
0.0
 10
368.2152216230434
 20
177.7316396037489
 30
0.0
 10
368.1399571059169
 20
177.654673007107
 30
0.0
 10
368.0747505095845
 20
177.5872919281455
 30
0.0
 10
367.8651738609875
 20
177.3685357718273
 30
0.0
 10
367.7068921659999
 20
177.2006120894445
 30
0.0
 10
367.5320779003906
 20
177.0118102332929
 30
0.0
  0
SPLINE
  5
181
330
1F
100
AcDbEntity
  8
1
  6
Continuous
 62
    30
370
    13
100
AcDbSpline
210
0.0
220
0.0
230
1.0
 70
     8
 71
     3
 72
     8
 73
     4
 74
     0
 42
0.000000001
 43
0.0000000001
 40
0.0
 40
0.0
 40
0.0
 40
0.0
 40
1.0
 40
1.0
 40
1.0
 40
1.0
 10
372.6066909371373
 20
183.0388179069446
 30
0.0
 10
372.6125531049384
 20
183.0400801142061
 30
0.0
 10
372.615507738967
 20
183.0391255608551
 30
0.0
 10
372.615507738967
 20
183.035918900991
 30
0.0
  0
SPLINE
  5
182
330
1F
100
AcDbEntity
  8
1
  6
Continuous
 62
    30
370
    13
100
AcDbSpline
210
0.0
220
0.0
230
1.0
 70
     8
 71
     3
 72
     8
 73
     4
 74
     0
 42
0.000000001
 43
0.0000000001
 40
0.0
 40
0.0
 40
0.0
 40
0.0
 40
1.0
 40
1.0
 40
1.0
 40
1.0
 10
372.6155077389668
 20
112.6460132771326
 30
0.0
 10
372.6155077389668
 20
112.6428091257593
 30
0.0
 10
372.6125575337943
 20
112.6418497480468
 30
0.0
 10
372.6066830554701
 20
112.6431159878385
 30
0.0
  0
SPLINE
  5
183
330
1F
100
AcDbEntity
  8
1
  6
Continuous
 62
    30
370
    13
100
AcDbSpline
210
0.0
220
0.0
230
1.0
 70
     8
 71
     3
 72
     8
 73
     4
 74
     0
 42
0.000000001
 43
0.0000000001
 40
0.0
 40
0.0
 40
0.0
 40
0.0
 40
1.0
 40
1.0
 40
1.0
 40
1.0
 10
387.721098734361
 20
112.6431142711825
 30
0.0
 10
387.7152365665493
 20
112.6418520639158
 30
0.0
 10
387.7122819325153
 20
112.6428066172656
 30
0.0
 10
387.7122819325153
 20
112.6460132771326
 30
0.0
  0
SPLINE
  5
184
330
1F
100
AcDbEntity
  8
1
  6
Continuous
 62
    30
370
    13
100
AcDbSpline
210
0.0
220
0.0
230
1.0
 70
     8
 71
     3
 72
     8
 73
     4
 74
     0
 42
0.000000001
 43
0.0000000001
 40
0.0
 40
0.0
 40
0.0
 40
0.0
 40
1.0
 40
1.0
 40
1.0
 40
1.0
 10
387.7122819325153
 20
183.035918900991
 30
0.0
 10
387.7122819325153
 20
183.0391230523644
 30
0.0
 10
387.7152321376878
 20
183.0400824300768
 30
0.0
 10
387.721106616012
 20
183.0388161902852
 30
0.0
  0
SPLINE
  5
185
330
1F
100
AcDbEntity
  8
1
  6
Continuous
 62
    30
370
    13
100
AcDbSpline
210
0.0
220
0.0
230
1.0
 70
     8
 71
     3
 72
    47
 73
    43
 74
     0
 42
0.000000001
 43
0.0000000001
 40
0.0
 40
0.0
 40
0.0
 40
0.0
 40
0.1250000000000024
 40
0.1250000000000024
 40
0.1875000000000034
 40
0.1875000000000034
 40
0.2500000000000043
 40
0.2500000000000043
 40
0.3125000000000053
 40
0.3125000000000053
 40
0.3750000000000063
 40
0.3750000000000063
 40
0.3906250000000062
 40
0.3906250000000062
 40
0.406250000000006
 40
0.406250000000006
 40
0.4375000000000054
 40
0.4375000000000054
 40
0.5000000000000042
 40
0.5000000000000042
 40
0.562500000000003
 40
0.562500000000003
 40
0.6250000000000018
 40
0.6250000000000018
 40
0.6562500000000009
 40
0.6562500000000009
 40
0.6718750000000008
 40
0.6718750000000008
 40
0.6796875000000004
 40
0.6796875000000004
 40
0.6875000000000002
 40
0.7499999999999999
 40
0.7499999999999999
 40
0.8124999999999997
 40
0.8124999999999997
 40
0.8749999999999994
 40
0.8749999999999994
 40
0.9062499999999994
 40
0.9062499999999994
 40
0.9374999999999993
 40
0.9374999999999993
 40
1.0
 40
1.0
 40
1.0
 40
1.0
 10
357.1638948357411
 20
131.474607787456
 30
0.0
 10
357.5091777184774
 20
130.7784031144114
 30
0.0
 10
357.8758519222847
 20
130.0975334320549
 30
0.0
 10
358.4572462994507
 20
129.0998387824315
 30
0.0
 10
358.6562753734676
 20
128.7712110744769
 30
0.0
 10
359.0646612593183
 20
128.1219499059727
 30
0.0
 10
359.2740189024308
 20
127.8013167589554
 30
0.0
 10
359.7028921805465
 20
127.1681682413645
 30
0.0
 10
359.9224089940223
 20
126.8556533432125
 30
0.0
 10
360.3713644371618
 20
126.2388565223355
 30
0.0
 10
360.6008047693359
 20
125.9345753201215
 30
0.0
 10
360.893590665059
 20
125.5594252804784
 30
0.0
 10
360.9524467740575
 20
125.4846552490457
 30
0.0
 10
361.07074989265
 20
125.3356360659647
 30
0.0
 10
361.1301961551372
 20
125.2613892260515
 30
0.0
 10
361.3088159166048
 20
125.0401582588672
 30
0.0
 10
361.4284633669695
 20
124.8944399143957
 30
0.0
 10
361.788861181314
 20
124.4625498443728
 30
0.0
 10
362.0310740639196
 20
124.1816469220006
 30
0.0
 10
362.5179239976188
 20
123.6335829075078
 30
0.0
 10
362.7625631228989
 20
123.3664230066647
 30
0.0
 10
363.2525474685904
 20
122.845404245236
 30
0.0
 10
363.4978953335662
 20
122.5915468470674
 30
0.0
 10
363.8649179234479
 20
122.2202734830045
 30
0.0
 10
363.9870895035445
 20
122.0980996328555
 30
0.0
 10
364.1698734778753
 20
121.9171413178106
 30
0.0
 10
364.2307223593205
 20
121.8572055077528
 30
0.0
 10
364.3218475697345
 20
121.7678669616606
 30
0.0
 10
364.3521947914697
 20
121.7381848162912
 30
0.0
 10
364.4126964781473
 20
121.6791415832332
 30
0.0
 10
364.684241405479
 20
121.4147389276297
 30
0.0
 10
364.9491984165123
 20
121.1618186689611
 30
0.0
 10
365.4074470523578
 20
120.7283395317005
 30
0.0
 10
365.6301801969938
 20
120.5196777344892
 30
0.0
 10
366.0603576521626
 20
120.1164444258915
 30
0.0
 10
366.267804738452
 20
119.9218720482707
 30
0.0
 10
366.5654835788362
 20
119.6389903721806
 30
0.0
 10
366.6624594327093
 20
119.5461922840725
 30
0.0
 10
366.8515454105533
 20
119.3633200178287
 30
0.0
 10
366.9436705800892
 20
119.2732310312213
 30
0.0
 10
367.212075013852
 20
119.0067373962721
 30
0.0
 10
367.3787260163134
 20
118.8357441282217
 30
0.0
 10
367.5320779003904
 20
118.6701219448308
 30
0.0
  0
SPLINE
  5
186
330
1F
100
AcDbEntity
  8
1
  6
Continuous
 62
    30
370
    13
100
AcDbSpline
210
0.0
220
0.0
230
1.0
 70
     8
 71
     3
 72
    44
 73
    40
 74
     0
 42
0.000000001
 43
0.0000000001
 40
0.0
 40
0.0
 40
0.0
 40
0.0
 40
0.0624999999999996
 40
0.0624999999999996
 40
0.1249999999999992
 40
0.1249999999999992
 40
0.1874999999999988
 40
0.1874999999999988
 40
0.2187499999999984
 40
0.2343749999999977
 40
0.2343749999999977
 40
0.249999999999997
 40
0.249999999999997
 40
0.3124999999999967
 40
0.3124999999999967
 40
0.3749999999999963
 40
0.3749999999999963
 40
0.4374999999999959
 40
0.4374999999999959
 40
0.4687499999999954
 40
0.4843749999999954
 40
0.4843749999999954
 40
0.4999999999999955
 40
0.4999999999999955
 40
0.5624999999999959
 40
0.5624999999999959
 40
0.6249999999999962
 40
0.6249999999999962
 40
0.6874999999999966
 40
0.6874999999999966
 40
0.749999999999997
 40
0.749999999999997
 40
0.7812499999999973
 40
0.7812499999999973
 40
0.8124999999999977
 40
0.8124999999999977
 40
0.8749999999999984
 40
0.8749999999999984
 40
1.0
 40
1.0
 40
1.0
 40
1.0
 10
367.5320779003906
 20
177.0118102332929
 30
0.0
 10
367.3790726116179
 20
176.846562377687
 30
0.0
 10
367.2136863468038
 20
176.6768802353992
 30
0.0
 10
366.8609038220102
 20
176.326440013277
 30
0.0
 10
366.6735020981397
 20
176.1456804248779
 30
0.0
 10
366.2791280970965
 20
175.7707355234963
 30
0.0
 10
366.0721522632101
 20
175.5765489771812
 30
0.0
 10
365.7487167864007
 20
175.2733640103661
 30
0.0
 10
365.5837546525931
 20
175.1187942598346
 30
0.0
 10
365.414237323893
 20
174.959407435188
 30
0.0
 10
365.3002477275828
 20
174.8520396907967
 30
0.0
 10
365.2427057827671
 20
174.7977457326553
 30
0.0
 10
364.9538360844666
 20
174.5245390090376
 30
0.0
 10
364.7184294380682
 20
174.299829700523
 30
0.0
 10
364.2417544183878
 20
173.836839751328
 30
0.0
 10
364.0004831990618
 20
173.5985601143664
 30
0.0
 10
363.5144710295227
 20
173.1073730173066
 30
0.0
 10
363.2697279581227
 20
172.854466519558
 30
0.0
 10
362.9015897003569
 20
172.4634900441147
 30
0.0
 10
362.7172615792187
 20
172.2650997776381
 30
0.0
 10
362.5328162103172
 20
172.0622532687286
 30
0.0
 10
362.4098551536904
 20
171.9260216731326
 30
0.0
 10
362.3483453765732
 20
171.8573711003127
 30
0.0
 10
362.0412124005945
 20
171.5119730271621
 30
0.0
 10
361.7982717486862
 20
171.2303944469668
 30
0.0
 10
361.3190385019893
 20
170.6566150681915
 30
0.0
 10
361.082743195216
 20
170.3644156009713
 30
0.0
 10
360.6176657823405
 20
169.769387009216
 30
0.0
 10
360.388881688142
 20
169.4665588282635
 30
0.0
 10
359.9395172597566
 20
168.8503226079955
 30
0.0
 10
359.7189354459455
 20
168.5369152402592
 30
0.0
 10
359.3946409609734
 20
168.0589317152045
 30
0.0
 10
359.2876285978983
 20
167.8982770865723
 30
0.0
 10
359.0758972742553
 20
167.5744165658876
 30
0.0
 10
358.9714298518677
 20
167.4115962009028
 30
0.0
 10
358.6622219316588
 20
166.920486175095
 30
0.0
 10
358.4616760324016
 20
166.5895478518037
 30
0.0
 10
357.8767928865142
 20
165.5863040731725
 30
0.0
 10
357.5092023231617
 20
164.9035786749066
 30
0.0
 10
357.1638948357411
 20
164.2073243906678
 30
0.0
  0
SPLINE
  5
187
330
1F
100
AcDbEntity
  8
1
  6
Continuous
 62
    30
370
    13
100
AcDbSpline
210
0.0
220
0.0
230
1.0
 70
     8
 71
     3
 72
    43
 73
    39
 74
     0
 42
0.000000001
 43
0.0000000001
 40
0.0
 40
0.0
 40
0.0
 40
0.0
 40
0.0672540210942987
 40
0.0672540210942987
 40
0.1345080421885973
 40
0.1345080421885973
 40
0.201762063282896
 40
0.201762063282896
 40
0.2353890738300453
 40
0.2353890738300453
 40
0.2522025791036192
 40
0.2522025791036192
 40
0.2690160843771929
 40
0.2690160843771929
 40
0.2858295896507667
 40
0.2858295896507667
 40
0.3026430949243405
 40
0.33627010547149
 40
0.33627010547149
 40
0.4035241265657893
 40
0.4035241265657893
 40
0.4707781476600886
 40
0.4707781476600886
 40
0.5380321687543879
 40
0.5380321687543879
 40
0.5716591793015368
 40
0.5716591793015368
 40
0.6052861898486855
 40
0.6052861898486855
 40
0.6725402109429828
 40
0.6725402109429828
 40
0.7397942320372802
 40
0.7397942320372802
 40
0.8070482531315775
 40
0.8070482531315775
 40
0.941556295320173
 40
0.941556295320173
 40
1.0
 40
1.0
 40
1.0
 40
1.0
 10
368.663894835741
 20
129.4493919313123
 30
0.0
 10
368.663894835741
 20
129.4924534305416
 30
0.0
 10
368.6539836929368
 20
129.5476407690892
 30
0.0
 10
368.6162289643765
 20
129.6804012239025
 30
0.0
 10
368.5883803239088
 20
129.7579788608936
 30
0.0
 10
368.5161535193861
 20
129.9341375630043
 30
0.0
 10
368.4717721053874
 20
130.0327215623337
 30
0.0
 10
368.3935922413248
 20
130.1955840916032
 30
0.0
 10
368.3655952085955
 20
130.2523719197449
 30
0.0
 10
368.3207734017692
 20
130.3412289533801
 30
0.0
 10
368.3053783979888
 20
130.3714270600638
 30
0.0
 10
368.2737546727213
 20
130.4328536432459
 30
0.0
 10
368.2575180135811
 20
130.4640978829048
 30
0.0
 10
368.224216653729
 20
130.5276253219421
 30
0.0
 10
368.2071407528502
 20
130.5599293476219
 30
0.0
 10
368.1722668276552
 20
130.6253946631533
 30
0.0
 10
368.118855615827
 20
130.7249119394849
 30
0.0
 10
368.0622625949674
 20
130.8282604396158
 30
0.0
 10
367.9451115091504
 20
131.0397701002641
 30
0.0
 10
367.86173384299
 20
131.1871830756327
 30
0.0
 10
367.6856202808947
 20
131.4935433825007
 30
0.0
 10
367.5928812137855
 20
131.6524939593534
 30
0.0
 10
367.3989557544634
 20
131.9809527579913
 30
0.0
 10
367.2977673067811
 20
132.1504630965006
 30
0.0
 10
367.1401831443717
 20
132.4120747613308
 30
0.0
 10
367.0866868003548
 20
132.5005044956922
 30
0.0
 10
366.9778324065175
 20
132.679735700808
 30
0.0
 10
366.9226805038539
 20
132.7701976752885
 30
0.0
 10
366.7553125786539
 20
133.043774327499
 30
0.0
 10
366.6411298139457
 20
133.2291722546219
 30
0.0
 10
366.4081181067744
 20
133.6054334418266
 30
0.0
 10
366.2892879075698
 20
133.7962979099287
 30
0.0
 10
366.0474213806528
 20
134.1830519044463
 30
0.0
 10
365.9243842084423
 20
134.3789422466774
 30
0.0
 10
365.5494921805235
 20
134.9736227161779
 30
0.0
 10
365.2918810389751
 20
135.3793971704352
 30
0.0
 10
364.912809383815
 20
135.9733724038484
 30
0.0
 10
364.796732180568
 20
136.1548535502665
 30
0.0
 10
364.6794592090783
 20
136.3378433789727
 30
0.0
  0
SPLINE
  5
188
330
1F
100
AcDbEntity
  8
1
  6
Continuous
 62
    30
370
    13
100
AcDbSpline
210
0.0
220
0.0
230
1.0
 70
     8
 71
     3
 72
    43
 73
    39
 74
     0
 42
0.000000001
 43
0.0000000001
 40
0.0
 40
0.0
 40
0.0
 40
0.0
 40
0.0584754358722364
 40
0.0584754358722364
 40
0.1929789450333467
 40
0.1929789450333467
 40
0.2602306996139022
 40
0.2602306996139022
 40
0.3274824541944574
 40
0.3274824541944574
 40
0.3947342087750129
 40
0.3947342087750129
 40
0.4283600860652909
 40
0.4283600860652909
 40
0.4619859633555685
 40
0.4619859633555685
 40
0.529237717936124
 40
0.529237717936124
 40
0.5964894725166792
 40
0.5964894725166792
 40
0.6637412270972347
 40
0.6637412270972347
 40
0.6973671043875113
 40
0.7141800430326488
 40
0.7141800430326488
 40
0.7309929816777864
 40
0.7309929816777864
 40
0.7478059203229239
 40
0.7478059203229239
 40
0.7646188589680615
 40
0.7646188589680615
 40
0.7982447362583382
 40
0.7982447362583382
 40
0.8654964908388924
 40
0.8654964908388924
 40
0.9327482454194461
 40
0.9327482454194461
 40
1.0
 40
1.0
 40
1.0
 40
1.0
 10
364.6792563293112
 20
159.3437722309634
 30
0.0
 10
364.796598306861
 20
159.5268693228622
 30
0.0
 10
364.9127431732439
 20
159.7084560275591
 30
0.0
 10
365.2918810389752
 20
160.3025350076885
 30
0.0
 10
365.5494921805236
 20
160.7083094619458
 30
0.0
 10
365.9243842084424
 20
161.3029899314463
 30
0.0
 10
366.0474213806529
 20
161.4988802736774
 30
0.0
 10
366.2892879075698
 20
161.885634268195
 30
0.0
 10
366.4081181067745
 20
162.0764987362971
 30
0.0
 10
366.6411298139457
 20
162.4527599235018
 30
0.0
 10
366.755312578654
 20
162.6381578506247
 30
0.0
 10
366.9226805038539
 20
162.9117345028352
 30
0.0
 10
366.9778324065176
 20
163.0021964773157
 30
0.0
 10
367.0866868003549
 20
163.1814276824315
 30
0.0
 10
367.1401831443718
 20
163.2698574167929
 30
0.0
 10
367.2977673067812
 20
163.5314690816231
 30
0.0
 10
367.3989557544635
 20
163.7009794201324
 30
0.0
 10
367.5928812137856
 20
164.0294382187703
 30
0.0
 10
367.6856202808949
 20
164.188388795623
 30
0.0
 10
367.8617338429901
 20
164.494749102491
 30
0.0
 10
367.9451115091504
 20
164.6421620778596
 30
0.0
 10
368.0622625949675
 20
164.8536717385079
 30
0.0
 10
368.1188556158272
 20
164.9570202386388
 30
0.0
 10
368.1722668276553
 20
165.0565375149704
 30
0.0
 10
368.2071407528503
 20
165.1220028305018
 30
0.0
 10
368.2242166537291
 20
165.1543068561816
 30
0.0
 10
368.2575180135812
 20
165.217834295219
 30
0.0
 10
368.2737546727213
 20
165.2490785348778
 30
0.0
 10
368.3053783979889
 20
165.31050511806
 30
0.0
 10
368.3207734017693
 20
165.3407032247436
 30
0.0
 10
368.3655952085956
 20
165.4295602583788
 30
0.0
 10
368.3935922413249
 20
165.4863480865205
 30
0.0
 10
368.4717721053875
 20
165.64921061579
 30
0.0
 10
368.5161535193863
 20
165.7477946151194
 30
0.0
 10
368.588380323909
 20
165.9239533172301
 30
0.0
 10
368.6162289643766
 20
166.0015309542212
 30
0.0
 10
368.6539836929369
 20
166.1342914090345
 30
0.0
 10
368.6638948357411
 20
166.1894787475821
 30
0.0
 10
368.6638948357411
 20
166.2325402468114
 30
0.0
  0
SPLINE
  5
189
330
1F
100
AcDbEntity
  8
1
  6
Continuous
 62
    30
370
    13
100
AcDbSpline
210
0.0
220
0.0
230
1.0
 70
     8
 71
     3
 72
    44
 73
    40
 74
     0
 42
0.000000001
 43
0.0000000001
 40
0.0
 40
0.0
 40
0.0
 40
0.0
 40
0.0624999999999991
 40
0.0624999999999991
 40
0.1249999999999983
 40
0.1249999999999983
 40
0.1874999999999974
 40
0.1874999999999974
 40
0.218749999999997
 40
0.2343749999999966
 40
0.2343749999999966
 40
0.2499999999999962
 40
0.2499999999999962
 40
0.3124999999999964
 40
0.3124999999999964
 40
0.3749999999999967
 40
0.3749999999999967
 40
0.4374999999999969
 40
0.4374999999999969
 40
0.468749999999997
 40
0.4843749999999971
 40
0.4843749999999971
 40
0.4999999999999971
 40
0.4999999999999971
 40
0.5624999999999977
 40
0.5624999999999977
 40
0.6249999999999982
 40
0.6249999999999982
 40
0.6874999999999988
 40
0.6874999999999988
 40
0.7499999999999993
 40
0.7499999999999993
 40
0.7812499999999997
 40
0.7812499999999997
 40
0.8124999999999999
 40
0.8124999999999999
 40
0.8749999999999999
 40
0.8749999999999999
 40
1.0
 40
1.0
 40
1.0
 40
1.0
 10
392.7957117710916
 20
118.6701219448308
 30
0.0
 10
392.9487170598643
 20
118.8353698004367
 30
0.0
 10
393.1141033246785
 20
119.0050519427245
 30
0.0
 10
393.466885849472
 20
119.3554921648467
 30
0.0
 10
393.6542875733425
 20
119.5362517532458
 30
0.0
 10
394.0486615743857
 20
119.9111966546274
 30
0.0
 10
394.2556374082721
 20
120.1053832009425
 30
0.0
 10
394.5790728850815
 20
120.4085681677576
 30
0.0
 10
394.7440350188891
 20
120.5631379182891
 30
0.0
 10
394.9135523475892
 20
120.7225247429356
 30
0.0
 10
395.0275419438994
 20
120.829892487327
 30
0.0
 10
395.0850838887151
 20
120.8841864454684
 30
0.0
 10
395.3739535870156
 20
121.157393169086
 30
0.0
 10
395.609360233414
 20
121.3821024776007
 30
0.0
 10
396.0860352530944
 20
121.8450924267957
 30
0.0
 10
396.3273064724204
 20
122.0833720637573
 30
0.0
 10
396.8133186419595
 20
122.5745591608171
 30
0.0
 10
397.0580617133595
 20
122.8274656585657
 30
0.0
 10
397.4261999711254
 20
123.218442134009
 30
0.0
 10
397.6105280922635
 20
123.4168324004856
 30
0.0
 10
397.794973461165
 20
123.6196789093951
 30
0.0
 10
397.9179345177918
 20
123.7559105049911
 30
0.0
 10
397.9794442949089
 20
123.824561077811
 30
0.0
 10
398.2865772708877
 20
124.1699591509616
 30
0.0
 10
398.529517922796
 20
124.4515377311569
 30
0.0
 10
399.0087511694928
 20
125.0253171099322
 30
0.0
 10
399.2450464762662
 20
125.3175165771524
 30
0.0
 10
399.7101238891418
 20
125.9125451689077
 30
0.0
 10
399.9389079833402
 20
126.2153733498602
 30
0.0
 10
400.3882724117256
 20
126.8316095701282
 30
0.0
 10
400.6088542255367
 20
127.1450169378645
 30
0.0
 10
400.9331487105088
 20
127.6230004629192
 30
0.0
 10
401.0401610735839
 20
127.7836550915514
 30
0.0
 10
401.2518923972268
 20
128.1075156122361
 30
0.0
 10
401.3563598196145
 20
128.2703359772208
 30
0.0
 10
401.6655677398233
 20
128.7614460030287
 30
0.0
 10
401.8661136390806
 20
129.09238432632
 30
0.0
 10
402.450996784968
 20
130.0956281049512
 30
0.0
 10
402.8185873483204
 20
130.7783535032171
 30
0.0
 10
403.1638948357411
 20
131.4746077874559
 30
0.0
  0
SPLINE
  5
18A
330
1F
100
AcDbEntity
  8
1
  6
Continuous
 62
    30
370
    13
100
AcDbSpline
210
0.0
220
0.0
230
1.0
 70
     8
 71
     3
 72
    47
 73
    43
 74
     0
 42
0.000000001
 43
0.0000000001
 40
0.0
 40
0.0
 40
0.0
 40
0.0
 40
0.1249999999999971
 40
0.1249999999999971
 40
0.1874999999999959
 40
0.1874999999999959
 40
0.2499999999999947
 40
0.2499999999999947
 40
0.3124999999999936
 40
0.3124999999999936
 40
0.3749999999999923
 40
0.3749999999999923
 40
0.3906249999999919
 40
0.3906249999999919
 40
0.4062499999999915
 40
0.4062499999999915
 40
0.4374999999999903
 40
0.4374999999999903
 40
0.4999999999999884
 40
0.4999999999999884
 40
0.5624999999999865
 40
0.5624999999999865
 40
0.6249999999999845
 40
0.6249999999999845
 40
0.6562499999999831
 40
0.6562499999999831
 40
0.6718749999999826
 40
0.6718749999999826
 40
0.6796874999999822
 40
0.6796874999999822
 40
0.6874999999999818
 40
0.749999999999985
 40
0.749999999999985
 40
0.8124999999999882
 40
0.8124999999999882
 40
0.8749999999999915
 40
0.8749999999999915
 40
0.9062499999999933
 40
0.9062499999999933
 40
0.9374999999999953
 40
0.9374999999999953
 40
1.0
 40
1.0
 40
1.0
 40
1.0
 10
403.1638948357411
 20
164.2073243906677
 30
0.0
 10
402.8186119530047
 20
164.9035290637123
 30
0.0
 10
402.4519377491975
 20
165.5843987460688
 30
0.0
 10
401.8705433720314
 20
166.5820933956922
 30
0.0
 10
401.6715142980146
 20
166.9107211036468
 30
0.0
 10
401.2631284121638
 20
167.559982272151
 30
0.0
 10
401.0537707690513
 20
167.8806154191683
 30
0.0
 10
400.6248974909356
 20
168.5137639367592
 30
0.0
 10
400.4053806774598
 20
168.8262788349112
 30
0.0
 10
399.9564252343202
 20
169.4430756557882
 30
0.0
 10
399.7269849021462
 20
169.7473568580022
 30
0.0
 10
399.4341990064231
 20
170.1225068976453
 30
0.0
 10
399.3753428974246
 20
170.197276929078
 30
0.0
 10
399.2570397788321
 20
170.346296112159
 30
0.0
 10
399.1975935163449
 20
170.4205429520722
 30
0.0
 10
399.0189737548773
 20
170.6417739192565
 30
0.0
 10
398.8993263045126
 20
170.787492263728
 30
0.0
 10
398.5389284901681
 20
171.2193823337509
 30
0.0
 10
398.2967156075625
 20
171.5002852561231
 30
0.0
 10
397.8098656738633
 20
172.0483492706159
 30
0.0
 10
397.5652265485832
 20
172.315509171459
 30
0.0
 10
397.0752422028917
 20
172.8365279328877
 30
0.0
 10
396.8298943379158
 20
173.0903853310563
 30
0.0
 10
396.4628717480342
 20
173.4616586951192
 30
0.0
 10
396.3407001679376
 20
173.5838325452681
 30
0.0
 10
396.1579161936068
 20
173.7647908603131
 30
0.0
 10
396.0970673121616
 20
173.8247266703709
 30
0.0
 10
396.0059421017476
 20
173.9140652164631
 30
0.0
 10
395.9755948800124
 20
173.9437473618325
 30
0.0
 10
395.9150931933348
 20
174.0027905948905
 30
0.0
 10
395.6435482660031
 20
174.267193250494
 30
0.0
 10
395.3785912549698
 20
174.5201135091626
 30
0.0
 10
394.9203426191243
 20
174.9535926464231
 30
0.0
 10
394.6976094744882
 20
175.1622544436344
 30
0.0
 10
394.2674320193194
 20
175.5654877522322
 30
0.0
 10
394.0599849330301
 20
175.760060129853
 30
0.0
 10
393.7623060926458
 20
176.0429418059431
 30
0.0
 10
393.6653302387728
 20
176.1357398940511
 30
0.0
 10
393.4762442609288
 20
176.3186121602949
 30
0.0
 10
393.3841190913928
 20
176.4087011469024
 30
0.0
 10
393.1157146576301
 20
176.6751947818516
 30
0.0
 10
392.9490636551687
 20
176.846188049902
 30
0.0
 10
392.7957117710917
 20
177.0118102332929
 30
0.0
  0
SPLINE
  5
18B
330
1F
100
AcDbEntity
  8
1
  6
Continuous
 62
    30
370
    13
100
AcDbSpline
210
0.0
220
0.0
230
1.0
 70
     8
 71
     3
 72
    43
 73
    39
 74
     0
 42
0.000000001
 43
0.0000000001
 40
0.0
 40
0.0
 40
0.0
 40
0.0
 40
0.0584754358945679
 40
0.0584754358945679
 40
0.1929789450524863
 40
0.1929789450524863
 40
0.2602306996314459
 40
0.2602306996314459
 40
0.3274824542104056
 40
0.3274824542104056
 40
0.394734208789365
 40
0.394734208789365
 40
0.428360086078845
 40
0.428360086078845
 40
0.4619859633683247
 40
0.4619859633683247
 40
0.5292377179472851
 40
0.5292377179472851
 40
0.5964894725262455
 40
0.5964894725262455
 40
0.6637412271052059
 40
0.6637412271052059
 40
0.6973671043946859
 40
0.7141800430394247
 40
0.7141800430394247
 40
0.7309929816841637
 40
0.7309929816841637
 40
0.7478059203289028
 40
0.7478059203289028
 40
0.7646188589736417
 40
0.7646188589736417
 40
0.7982447362631216
 40
0.7982447362631216
 40
0.8654964908420811
 40
0.8654964908420811
 40
0.9327482454210405
 40
0.9327482454210405
 40
1.0
 40
1.0
 40
1.0
 40
1.0
 10
395.6485333423137
 20
136.3381599473831
 30
0.0
 10
395.5311913647154
 20
136.1550628554089
 30
0.0
 10
395.4150464982849
 20
135.9734761506377
 30
0.0
 10
395.035908632507
 20
135.3793971704352
 30
0.0
 10
394.7782974909586
 20
134.9736227161779
 30
0.0
 10
394.4034054630397
 20
134.3789422466774
 30
0.0
 10
394.2803682908293
 20
134.1830519044462
 30
0.0
 10
394.0385017639124
 20
133.7962979099287
 30
0.0
 10
393.9196715647078
 20
133.6054334418266
 30
0.0
 10
393.6866598575364
 20
133.2291722546218
 30
0.0
 10
393.5724770928283
 20
133.043774327499
 30
0.0
 10
393.4051091676282
 20
132.7701976752884
 30
0.0
 10
393.3499572649646
 20
132.679735700808
 30
0.0
 10
393.2411028711273
 20
132.5005044956922
 30
0.0
 10
393.1876065271104
 20
132.4120747613307
 30
0.0
 10
393.030022364701
 20
132.1504630965006
 30
0.0
 10
392.9288339170187
 20
131.9809527579913
 30
0.0
 10
392.7349084576966
 20
131.6524939593534
 30
0.0
 10
392.6421693905874
 20
131.4935433825007
 30
0.0
 10
392.4660558284921
 20
131.1871830756326
 30
0.0
 10
392.3826781623317
 20
131.0397701002641
 30
0.0
 10
392.2655270765147
 20
130.8282604396158
 30
0.0
 10
392.208934055655
 20
130.7249119394849
 30
0.0
 10
392.1555228438269
 20
130.6253946631532
 30
0.0
 10
392.1206489186319
 20
130.5599293476218
 30
0.0
 10
392.1035730177531
 20
130.5276253219421
 30
0.0
 10
392.070271657901
 20
130.4640978829047
 30
0.0
 10
392.0540349987609
 20
130.4328536432459
 30
0.0
 10
392.0224112734933
 20
130.3714270600637
 30
0.0
 10
392.0070162697129
 20
130.34122895338
 30
0.0
 10
391.9621944628866
 20
130.2523719197448
 30
0.0
 10
391.9341974301573
 20
130.1955840916032
 30
0.0
 10
391.8560175660947
 20
130.0327215623337
 30
0.0
 10
391.811636152096
 20
129.9341375630042
 30
0.0
 10
391.7394093475733
 20
129.7579788608936
 30
0.0
 10
391.7115607071056
 20
129.6804012239025
 30
0.0
 10
391.6738059785453
 20
129.5476407690891
 30
0.0
 10
391.6638948357411
 20
129.4924534305416
 30
0.0
 10
391.6638948357411
 20
129.4493919313123
 30
0.0
  0
SPLINE
  5
18C
330
1F
100
AcDbEntity
  8
1
  6
Continuous
 62
    30
370
    13
100
AcDbSpline
210
0.0
220
0.0
230
1.0
 70
     8
 71
     3
 72
    43
 73
    39
 74
     0
 42
0.000000001
 43
0.0000000001
 40
0.0
 40
0.0
 40
0.0
 40
0.0
 40
0.0672540210947923
 40
0.0672540210947923
 40
0.1345080421895846
 40
0.1345080421895846
 40
0.2017620632843769
 40
0.2017620632843769
 40
0.2353890738317731
 40
0.2353890738317731
 40
0.2522025791054703
 40
0.2522025791054703
 40
0.2690160843791675
 40
0.2690160843791675
 40
0.2858295896528647
 40
0.2858295896528647
 40
0.3026430949265618
 40
0.3362701054739582
 40
0.3362701054739582
 40
0.4035241265687514
 40
0.4035241265687514
 40
0.4707781476635446
 40
0.4707781476635446
 40
0.5380321687583378
 40
0.5380321687583378
 40
0.5716591793057341
 40
0.5716591793057341
 40
0.6052861898531303
 40
0.6052861898531303
 40
0.6725402109479228
 40
0.6725402109479228
 40
0.7397942320427152
 40
0.7397942320427152
 40
0.8070482531375076
 40
0.8070482531375076
 40
0.9415562953270918
 40
0.9415562953270918
 40
1.0
 40
1.0
 40
1.0
 40
1.0
 10
391.6638948357411
 20
166.2325402468113
 30
0.0
 10
391.6638948357411
 20
166.189478747582
 30
0.0
 10
391.6738059785453
 20
166.1342914090345
 30
0.0
 10
391.7115607071056
 20
166.0015309542212
 30
0.0
 10
391.7394093475733
 20
165.9239533172301
 30
0.0
 10
391.811636152096
 20
165.7477946151194
 30
0.0
 10
391.8560175660947
 20
165.6492106157899
 30
0.0
 10
391.9341974301573
 20
165.4863480865205
 30
0.0
 10
391.9621944628866
 20
165.4295602583788
 30
0.0
 10
392.0070162697129
 20
165.3407032247436
 30
0.0
 10
392.0224112734933
 20
165.31050511806
 30
0.0
 10
392.0540349987609
 20
165.2490785348777
 30
0.0
 10
392.070271657901
 20
165.2178342952189
 30
0.0
 10
392.1035730177531
 20
165.1543068561816
 30
0.0
 10
392.1206489186319
 20
165.1220028305018
 30
0.0
 10
392.1555228438269
 20
165.0565375149704
 30
0.0
 10
392.208934055655
 20
164.9570202386388
 30
0.0
 10
392.2655270765147
 20
164.8536717385078
 30
0.0
 10
392.3826781623317
 20
164.6421620778596
 30
0.0
 10
392.4660558284921
 20
164.494749102491
 30
0.0
 10
392.6421693905874
 20
164.188388795623
 30
0.0
 10
392.7349084576966
 20
164.0294382187703
 30
0.0
 10
392.9288339170187
 20
163.7009794201323
 30
0.0
 10
393.030022364701
 20
163.5314690816231
 30
0.0
 10
393.1876065271104
 20
163.2698574167929
 30
0.0
 10
393.2411028711273
 20
163.1814276824315
 30
0.0
 10
393.3499572649646
 20
163.0021964773156
 30
0.0
 10
393.4051091676282
 20
162.9117345028352
 30
0.0
 10
393.5724770928283
 20
162.6381578506247
 30
0.0
 10
393.6866598575364
 20
162.4527599235018
 30
0.0
 10
393.9196715647078
 20
162.076498736297
 30
0.0
 10
394.0385017639124
 20
161.8856342681949
 30
0.0
 10
394.2803682908293
 20
161.4988802736774
 30
0.0
 10
394.4034054630397
 20
161.3029899314462
 30
0.0
 10
394.7782974909586
 20
160.7083094619458
 30
0.0
 10
395.035908632507
 20
160.3025350076885
 30
0.0
 10
395.4149802876527
 20
159.7085597742979
 30
0.0
 10
395.531057490885
 20
159.5270786279029
 30
0.0
 10
395.6483304623596
 20
159.34408879922
 30
0.0
  0
ENDSEC
  0
SECTION
  2
OBJECTS
  0
DICTIONARY
  5
C
330
0
100
AcDbDictionary
281
     1
  3
ACAD_DETAILVIEWSTYLE
350
1E1
  3
ACAD_GROUP
350
D
  3
ACAD_LAYOUT
350
1A
  3
ACAD_MATERIAL
350
43
  3
ACAD_MLEADERSTYLE
350
6B
  3
ACAD_MLINESTYLE
350
17
  3
ACAD_PLOTSETTINGS
350
19
  3
ACAD_PLOTSTYLENAME
350
E
  3
ACAD_SCALELIST
350
47
  3
ACAD_SECTIONVIEWSTYLE
350
1E2
  3
ACAD_TABLESTYLE
350
69
  3
ACAD_VISUALSTYLE
350
2A
  3
ACDB_RECOMPOSE_DATA
350
1DE
  3
AcDbVariableDictionary
350
19E
  0
DICTIONARY
  5
19C
330
8
100
AcDbDictionary
280
     1
281
     1
  3
ACAD_XREC_ROUNDTRIP
360
19D
  0
DICTIONARY
  5
1E1
102
{ACAD_REACTORS
330
C
102
}
330
C
100
AcDbDictionary
281
     1
  0
DICTIONARY
  5
D
102
{ACAD_REACTORS
330
C
102
}
330
C
100
AcDbDictionary
281
     1
  0
DICTIONARY
  5
1A
102
{ACAD_REACTORS
330
C
102
}
330
C
100
AcDbDictionary
281
     1
  3
Layout1
350
1E
  3
Layout2
350
26
  3
Model
350
22
  0
DICTIONARY
  5
43
102
{ACAD_REACTORS
330
C
102
}
330
C
100
AcDbDictionary
281
     1
  3
ByBlock
350
45
  3
ByLayer
350
44
  3
Global
350
46
  0
DICTIONARY
  5
6B
102
{ACAD_REACTORS
330
C
102
}
330
C
100
AcDbDictionary
281
     1
  3
Standard
350
6C
  0
DICTIONARY
  5
17
102
{ACAD_REACTORS
330
C
102
}
330
C
100
AcDbDictionary
281
     1
  3
Standard
350
18
  0
DICTIONARY
  5
19
102
{ACAD_REACTORS
330
C
102
}
330
C
100
AcDbDictionary
281
     1
  0
ACDBDICTIONARYWDFLT
  5
E
102
{ACAD_REACTORS
330
C
102
}
330
C
100
AcDbDictionary
281
     1
  3
Normal
350
F
100
AcDbDictionaryWithDefault
340
F
  0
DICTIONARY
  5
47
102
{ACAD_REACTORS
330
C
102
}
330
C
100
AcDbDictionary
281
     1
  3
A0
350
48
  3
A1
350
49
  3
A2
350
4A
  3
A3
350
4B
  3
A4
350
4C
  3
A5
350
4D
  3
A6
350
4E
  3
A7
350
4F
  3
A8
350
50
  3
A9
350
51
  3
B0
350
52
  3
B1
350
53
  3
B2
350
54
  3
B3
350
55
  3
B4
350
56
  3
B5
350
57
  3
B6
350
58
  3
B7
350
59
  3
B8
350
5A
  3
B9
350
5B
  3
C0
350
5C
  3
C1
350
5D
  3
C2
350
5E
  3
C3
350
5F
  3
C4
350
60
  3
C5
350
61
  3
C6
350
62
  3
C7
350
63
  3
C8
350
64
  3
C9
350
65
  3
D0
350
66
  3
D1
350
67
  3
D2
350
68
  0
DICTIONARY
  5
1E2
102
{ACAD_REACTORS
330
C
102
}
330
C
100
AcDbDictionary
281
     1
  0
DICTIONARY
  5
69
102
{ACAD_REACTORS
330
C
102
}
330
C
100
AcDbDictionary
281
     1
  3
Standard
350
6A
  0
DICTIONARY
  5
2A
102
{ACAD_REACTORS
330
C
102
}
330
C
100
AcDbDictionary
281
     1
  3
2dWireframe
350
2F
  3
Basic
350
32
  3
Brighten
350
36
  3
ColorChange
350
3A
  3
Conceptual
350
34
  3
Dim
350
35
  3
EdgeColorOff
350
3D
  3
Facepattern
350
39
  3
Flat
350
2B
  3
FlatWithEdges
350
2C
  3
Gouraud
350
2D
  3
GouraudWithEdges
350
2E
  3
Hidden
350
31
  3
JitterOff
350
3B
  3
Linepattern
350
38
  3
OverhangOff
350
3C
  3
Realistic
350
33
  3
Shaded
350
42
  3
Shaded with edges
350
41
  3
Shades of Gray
350
3E
  3
Sketchy
350
3F
  3
Thicken
350
37
  3
Wireframe
350
30
  3
X-Ray
350
40
  0
XRECORD
  5
1DE
102
{ACAD_REACTORS
330
C
102
}
330
C
100
AcDbXrecord
280
     1
 90
        1
330
6A
  0
DICTIONARY
  5
19E
102
{ACAD_REACTORS
330
C
102
}
330
C
100
AcDbDictionary
281
     1
  3
CANNOSCALE
350
19F
  3
CMLEADERSTYLE
350
1E0
  3
CTABLESTYLE
350
1DF
  3
MSLTSCALE
350
1A0
  3
XCLIPFRAME
350
1A1
  0
XRECORD
  5
19D
102
{ACAD_REACTORS
330
19C
102
}
330
19C
100
AcDbXrecord
280
     1
102
VTR_0.000_0.000_1.000_1.000_VISUALSTYLE
340
2F
102
VTR_0.000_0.000_1.000_1.000_GRIDDISPLAY
 70
     3
102
VTR_0.000_0.000_1.000_1.000_GRIDMAJOR
 70
     5
102
VTR_0.000_0.000_1.000_1.000_DEFAULTLIGHTING
280
     1
102
VTR_0.000_0.000_1.000_1.000_DEFAULTLIGHTINGTYPE
 70
     1
102
VTR_0.000_0.000_1.000_1.000_BRIGHTNESS
141
0.0
102
VTR_0.000_0.000_1.000_1.000_CONTRAST
142
0.0
102
VTR_0.000_0.000_0.500_1.000_VISUALSTYLE
340
2F
102
VTR_0.000_0.000_0.500_1.000_GRIDDISPLAY
 70
     3
102
VTR_0.000_0.000_0.500_1.000_GRIDMAJOR
 70
     5
102
VTR_0.000_0.000_0.500_1.000_DEFAULTLIGHTING
280
     1
102
VTR_0.000_0.000_0.500_1.000_DEFAULTLIGHTINGTYPE
 70
     1
102
VTR_0.000_0.000_0.500_1.000_BRIGHTNESS
141
0.0
102
VTR_0.000_0.000_0.500_1.000_CONTRAST
142
0.0
102
VTR_0.500_0.000_1.000_1.000_VISUALSTYLE
340
2F
102
VTR_0.500_0.000_1.000_1.000_GRIDDISPLAY
 70
     3
102
VTR_0.500_0.000_1.000_1.000_GRIDMAJOR
 70
     5
102
VTR_0.500_0.000_1.000_1.000_DEFAULTLIGHTING
280
     1
102
VTR_0.500_0.000_1.000_1.000_DEFAULTLIGHTINGTYPE
 70
     1
102
VTR_0.500_0.000_1.000_1.000_BRIGHTNESS
141
0.0
102
VTR_0.500_0.000_1.000_1.000_CONTRAST
142
0.0
102
VTR_0.000_0.500_1.000_1.000_VISUALSTYLE
340
2F
102
VTR_0.000_0.500_1.000_1.000_GRIDDISPLAY
 70
     3
102
VTR_0.000_0.500_1.000_1.000_GRIDMAJOR
 70
     5
102
VTR_0.000_0.500_1.000_1.000_DEFAULTLIGHTING
280
     1
102
VTR_0.000_0.500_1.000_1.000_DEFAULTLIGHTINGTYPE
 70
     1
102
VTR_0.000_0.500_1.000_1.000_BRIGHTNESS
141
0.0
102
VTR_0.000_0.500_1.000_1.000_CONTRAST
142
0.0
102
VTR_0.000_0.000_1.000_0.500_VISUALSTYLE
340
2F
102
VTR_0.000_0.000_1.000_0.500_GRIDDISPLAY
 70
     3
102
VTR_0.000_0.000_1.000_0.500_GRIDMAJOR
 70
     5
102
VTR_0.000_0.000_1.000_0.500_DEFAULTLIGHTING
280
     1
102
VTR_0.000_0.000_1.000_0.500_DEFAULTLIGHTINGTYPE
 70
     1
102
VTR_0.000_0.000_1.000_0.500_BRIGHTNESS
141
0.0
102
VTR_0.000_0.000_1.000_0.500_CONTRAST
142
0.0
102
VTR_0.000_0.500_0.500_1.000_VISUALSTYLE
340
2F
102
VTR_0.000_0.500_0.500_1.000_GRIDDISPLAY
 70
     3
102
VTR_0.000_0.500_0.500_1.000_GRIDMAJOR
 70
     5
102
VTR_0.000_0.500_0.500_1.000_DEFAULTLIGHTING
280
     1
102
VTR_0.000_0.500_0.500_1.000_DEFAULTLIGHTINGTYPE
 70
     1
102
VTR_0.000_0.500_0.500_1.000_BRIGHTNESS
141
0.0
102
VTR_0.000_0.500_0.500_1.000_CONTRAST
142
0.0
102
VTR_0.000_0.000_0.500_0.500_VISUALSTYLE
340
2F
102
VTR_0.000_0.000_0.500_0.500_GRIDDISPLAY
 70
     3
102
VTR_0.000_0.000_0.500_0.500_GRIDMAJOR
 70
     5
102
VTR_0.000_0.000_0.500_0.500_DEFAULTLIGHTING
280
     1
102
VTR_0.000_0.000_0.500_0.500_DEFAULTLIGHTINGTYPE
 70
     1
102
VTR_0.000_0.000_0.500_0.500_BRIGHTNESS
141
0.0
102
VTR_0.000_0.000_0.500_0.500_CONTRAST
142
0.0
102
VTR_0.500_0.000_1.000_0.500_VISUALSTYLE
340
2F
102
VTR_0.500_0.000_1.000_0.500_GRIDDISPLAY
 70
     3
102
VTR_0.500_0.000_1.000_0.500_GRIDMAJOR
 70
     5
102
VTR_0.500_0.000_1.000_0.500_DEFAULTLIGHTING
280
     1
102
VTR_0.500_0.000_1.000_0.500_DEFAULTLIGHTINGTYPE
 70
     1
102
VTR_0.500_0.000_1.000_0.500_BRIGHTNESS
141
0.0
102
VTR_0.500_0.000_1.000_0.500_CONTRAST
142
0.0
102
VTR_0.500_0.500_1.000_1.000_VISUALSTYLE
340
2F
102
VTR_0.500_0.500_1.000_1.000_GRIDDISPLAY
 70
     3
102
VTR_0.500_0.500_1.000_1.000_GRIDMAJOR
 70
     5
102
VTR_0.500_0.500_1.000_1.000_DEFAULTLIGHTING
280
     1
102
VTR_0.500_0.500_1.000_1.000_DEFAULTLIGHTINGTYPE
 70
     1
102
VTR_0.500_0.500_1.000_1.000_BRIGHTNESS
141
0.0
102
VTR_0.500_0.500_1.000_1.000_CONTRAST
142
0.0
102
VTR_0.000_0.500_0.333_1.000_VISUALSTYLE
340
2F
102
VTR_0.000_0.500_0.333_1.000_GRIDDISPLAY
 70
     3
102
VTR_0.000_0.500_0.333_1.000_GRIDMAJOR
 70
     5
102
VTR_0.000_0.500_0.333_1.000_DEFAULTLIGHTING
280
     1
102
VTR_0.000_0.500_0.333_1.000_DEFAULTLIGHTINGTYPE
 70
     1
102
VTR_0.000_0.500_0.333_1.000_BRIGHTNESS
141
0.0
102
VTR_0.000_0.500_0.333_1.000_CONTRAST
142
0.0
102
VTR_0.000_0.000_0.333_0.500_VISUALSTYLE
340
2F
102
VTR_0.000_0.000_0.333_0.500_GRIDDISPLAY
 70
     3
102
VTR_0.000_0.000_0.333_0.500_GRIDMAJOR
 70
     5
102
VTR_0.000_0.000_0.333_0.500_DEFAULTLIGHTING
280
     1
102
VTR_0.000_0.000_0.333_0.500_DEFAULTLIGHTINGTYPE
 70
     1
102
VTR_0.000_0.000_0.333_0.500_BRIGHTNESS
141
0.0
102
VTR_0.000_0.000_0.333_0.500_CONTRAST
142
0.0
102
VTR_0.333_0.500_0.667_1.000_VISUALSTYLE
340
2F
102
VTR_0.333_0.500_0.667_1.000_GRIDDISPLAY
 70
     3
102
VTR_0.333_0.500_0.667_1.000_GRIDMAJOR
 70
     5
102
VTR_0.333_0.500_0.667_1.000_DEFAULTLIGHTING
280
     1
102
VTR_0.333_0.500_0.667_1.000_DEFAULTLIGHTINGTYPE
 70
     1
102
VTR_0.333_0.500_0.667_1.000_BRIGHTNESS
141
0.0
102
VTR_0.333_0.500_0.667_1.000_CONTRAST
142
0.0
102
VTR_0.333_0.000_0.667_0.500_VISUALSTYLE
340
2F
102
VTR_0.333_0.000_0.667_0.500_GRIDDISPLAY
 70
     3
102
VTR_0.333_0.000_0.667_0.500_GRIDMAJOR
 70
     5
102
VTR_0.333_0.000_0.667_0.500_DEFAULTLIGHTING
280
     1
102
VTR_0.333_0.000_0.667_0.500_DEFAULTLIGHTINGTYPE
 70
     1
102
VTR_0.333_0.000_0.667_0.500_BRIGHTNESS
141
0.0
102
VTR_0.333_0.000_0.667_0.500_CONTRAST
142
0.0
102
VTR_0.667_0.500_1.000_1.000_VISUALSTYLE
340
2F
102
VTR_0.667_0.500_1.000_1.000_GRIDDISPLAY
 70
     3
102
VTR_0.667_0.500_1.000_1.000_GRIDMAJOR
 70
     5
102
VTR_0.667_0.500_1.000_1.000_DEFAULTLIGHTING
280
     1
102
VTR_0.667_0.500_1.000_1.000_DEFAULTLIGHTINGTYPE
 70
     1
102
VTR_0.667_0.500_1.000_1.000_BRIGHTNESS
141
0.0
102
VTR_0.667_0.500_1.000_1.000_CONTRAST
142
0.0
102
VTR_0.667_0.000_1.000_0.500_VISUALSTYLE
340
2F
102
VTR_0.667_0.000_1.000_0.500_GRIDDISPLAY
 70
     3
102
VTR_0.667_0.000_1.000_0.500_GRIDMAJOR
 70
     5
102
VTR_0.667_0.000_1.000_0.500_DEFAULTLIGHTING
280
     1
102
VTR_0.667_0.000_1.000_0.500_DEFAULTLIGHTINGTYPE
 70
     1
102
VTR_0.667_0.000_1.000_0.500_BRIGHTNESS
141
0.0
102
VTR_0.667_0.000_1.000_0.500_CONTRAST
142
0.0
  0
LAYOUT
  5
1E
102
{ACAD_REACTORS
330
1A
102
}
330
1A
100
AcDbPlotSettings
  1

  2
none_device
  4

  6

 40
0.0
 41
0.0
 42
0.0
 43
0.0
 44
0.0
 45
0.0
 46
0.0
 47
0.0
 48
0.0
 49
0.0
140
0.0
141
0.0
142
1.0
143
1.0
 70
   688
 72
     0
 73
     0
 74
     5
  7

 75
    16
 76
     0
 77
     2
 78
   300
147
1.0
148
0.0
149
0.0
100
AcDbLayout
  1
Layout1
 70
     1
 71
     1
 10
-0.5
 20
-0.5
 11
5.0
 21
5.0
 12
0.0
 22
0.0
 32
0.0
 14
-0.5
 24
-0.5
 34
-0.5
 15
5.0
 25
5.0
 35
5.0
146
0.0
 13
0.0
 23
0.0
 33
0.0
 16
1.0
 26
0.0
 36
0.0
 17
0.0
 27
1.0
 37
0.0
 76
     0
330
1B
  0
LAYOUT
  5
26
102
{ACAD_REACTORS
330
1A
102
}
330
1A
100
AcDbPlotSettings
  1

  2
none_device
  4

  6

 40
0.0
 41
0.0
 42
0.0
 43
0.0
 44
0.0
 45
0.0
 46
0.0
 47
0.0
 48
0.0
 49
0.0
140
0.0
141
0.0
142
1.0
143
1.0
 70
   688
 72
     0
 73
     0
 74
     5
  7

 75
    16
 76
     0
 77
     2
 78
   300
147
1.0
148
0.0
149
0.0
100
AcDbLayout
  1
Layout2
 70
     1
 71
     2
 10
0.0
 20
0.0
 11
0.0
 21
0.0
 12
0.0
 22
0.0
 32
0.0
 14
0.0
 24
0.0
 34
0.0
 15
0.0
 25
0.0
 35
0.0
146
0.0
 13
0.0
 23
0.0
 33
0.0
 16
1.0
 26
0.0
 36
0.0
 17
0.0
 27
1.0
 37
0.0
 76
     0
330
23
  0
LAYOUT
  5
22
102
{ACAD_REACTORS
330
1A
102
}
330
1A
100
AcDbPlotSettings
  1

  2
none_device
  4
Letter_(8.50_x_11.00_Inches)
  6

 40
6.35
 41
6.35
 42
6.350005
 43
6.350005
 44
215.9
 45
279.4
 46
0.0
 47
0.0
 48
0.0
 49
0.0
140
0.0
141
0.0
142
1.0
143
1.0
 70
  1712
 72
     0
 73
     0
 74
     0
  7

 75
     0
 76
     0
 77
     2
 78
   300
147
1.0
148
0.0
149
0.0
100
AcDbLayout
  1
Model
 70
     1
 71
     0
 10
-0.5
 20
-0.5
 11
5.0
 21
5.0
 12
0.0
 22
0.0
 32
0.0
 14
-0.5
 24
-0.5
 34
-0.5
 15
5.0
 25
5.0
 35
5.0
146
0.0
 13
0.0
 23
0.0
 33
0.0
 16
1.0
 26
0.0
 36
0.0
 17
0.0
 27
1.0
 37
0.0
 76
     0
330
1F
331
29
  0
MATERIAL
  5
45
102
{ACAD_REACTORS
330
43
102
}
102
{ACAD_XDICTIONARY
360
1D4
102
}
330
43
100
AcDbMaterial
  1
ByBlock
  0
MATERIAL
  5
44
102
{ACAD_REACTORS
330
43
102
}
102
{ACAD_XDICTIONARY
360
1D2
102
}
330
43
100
AcDbMaterial
  1
ByLayer
  0
MATERIAL
  5
46
102
{ACAD_REACTORS
330
43
102
}
102
{ACAD_XDICTIONARY
360
1D6
102
}
330
43
100
AcDbMaterial
  1
Global
  0
MLEADERSTYLE
  5
6C
102
{ACAD_REACTORS
330
6B
102
}
102
{ACAD_XDICTIONARY
360
1DC
102
}
330
6B
100
AcDbMLeaderStyle
170
     2
171
     1
172
     0
 90
        2
 40
0.0
 41
0.0
173
     1
 91
-1056964608
340
14
 92
       -2
290
     1
 42
0.09
291
     1
 43
0.36
  3
Standard
341
0
 44
0.18
300

342
11
174
     1
178
     6
175
     1
176
     0
 93
-1056964608
 45
0.18
292
     0
297
     0
 46
0.18
343
0
 94
-1056964608
 47
1.0
 49
1.0
140
1.0
293
     1
141
0.0
294
     1
177
     0
142
1.0
295
     0
296
     0
143
0.125
1001
ACAD_MLEADERVER
1070
     2
  0
MLINESTYLE
  5
18
102
{ACAD_REACTORS
330
17
102
}
330
17
100
AcDbMlineStyle
  2
Standard
 70
     0
  3

 62
   256
 51
90.0
 52
90.0
 71
     2
 49
0.5
 62
   256
  6
BYLAYER
 49
-0.5
 62
   256
  6
BYLAYER
  0
ACDBPLACEHOLDER
  5
F
102
{ACAD_REACTORS
330
E
102
}
330
E
  0
SCALE
  5
48
102
{ACAD_REACTORS
330
47
102
}
330
47
100
AcDbScale
 70
     0
300
1:1
140
1.0
141
1.0
290
     1
  0
SCALE
  5
49
102
{ACAD_REACTORS
330
47
102
}
330
47
100
AcDbScale
 70
     0
300
1:2
140
1.0
141
2.0
290
     0
  0
SCALE
  5
4A
102
{ACAD_REACTORS
330
47
102
}
330
47
100
AcDbScale
 70
     0
300
1:4
140
1.0
141
4.0
290
     0
  0
SCALE
  5
4B
102
{ACAD_REACTORS
330
47
102
}
330
47
100
AcDbScale
 70
     0
300
1:5
140
1.0
141
5.0
290
     0
  0
SCALE
  5
4C
102
{ACAD_REACTORS
330
47
102
}
330
47
100
AcDbScale
 70
     0
300
1:8
140
1.0
141
8.0
290
     0
  0
SCALE
  5
4D
102
{ACAD_REACTORS
330
47
102
}
330
47
100
AcDbScale
 70
     0
300
1:10
140
1.0
141
10.0
290
     0
  0
SCALE
  5
4E
102
{ACAD_REACTORS
330
47
102
}
330
47
100
AcDbScale
 70
     0
300
1:16
140
1.0
141
16.0
290
     0
  0
SCALE
  5
4F
102
{ACAD_REACTORS
330
47
102
}
330
47
100
AcDbScale
 70
     0
300
1:20
140
1.0
141
20.0
290
     0
  0
SCALE
  5
50
102
{ACAD_REACTORS
330
47
102
}
330
47
100
AcDbScale
 70
     0
300
1:30
140
1.0
141
30.0
290
     0
  0
SCALE
  5
51
102
{ACAD_REACTORS
330
47
102
}
330
47
100
AcDbScale
 70
     0
300
1:40
140
1.0
141
40.0
290
     0
  0
SCALE
  5
52
102
{ACAD_REACTORS
330
47
102
}
330
47
100
AcDbScale
 70
     0
300
1:50
140
1.0
141
50.0
290
     0
  0
SCALE
  5
53
102
{ACAD_REACTORS
330
47
102
}
330
47
100
AcDbScale
 70
     0
300
1:100
140
1.0
141
100.0
290
     0
  0
SCALE
  5
54
102
{ACAD_REACTORS
330
47
102
}
330
47
100
AcDbScale
 70
     0
300
2:1
140
2.0
141
1.0
290
     0
  0
SCALE
  5
55
102
{ACAD_REACTORS
330
47
102
}
330
47
100
AcDbScale
 70
     0
300
4:1
140
4.0
141
1.0
290
     0
  0
SCALE
  5
56
102
{ACAD_REACTORS
330
47
102
}
330
47
100
AcDbScale
 70
     0
300
8:1
140
8.0
141
1.0
290
     0
  0
SCALE
  5
57
102
{ACAD_REACTORS
330
47
102
}
330
47
100
AcDbScale
 70
     0
300
10:1
140
10.0
141
1.0
290
     0
  0
SCALE
  5
58
102
{ACAD_REACTORS
330
47
102
}
330
47
100
AcDbScale
 70
     0
300
100:1
140
100.0
141
1.0
290
     0
  0
SCALE
  5
59
102
{ACAD_REACTORS
330
47
102
}
330
47
100
AcDbScale
 70
     0
300
1/128" = 1'-0"
140
0.007812
141
12.0
290
     0
  0
SCALE
  5
5A
102
{ACAD_REACTORS
330
47
102
}
330
47
100
AcDbScale
 70
     0
300
1/64" = 1'-0"
140
0.015625
141
12.0
290
     0
  0
SCALE
  5
5B
102
{ACAD_REACTORS
330
47
102
}
330
47
100
AcDbScale
 70
     0
300
1/32" = 1'-0"
140
0.03125
141
12.0
290
     0
  0
SCALE
  5
5C
102
{ACAD_REACTORS
330
47
102
}
330
47
100
AcDbScale
 70
     0
300
1/16" = 1'-0"
140
0.0625
141
12.0
290
     0
  0
SCALE
  5
5D
102
{ACAD_REACTORS
330
47
102
}
330
47
100
AcDbScale
 70
     0
300
3/32" = 1'-0"
140
0.09375
141
12.0
290
     0
  0
SCALE
  5
5E
102
{ACAD_REACTORS
330
47
102
}
330
47
100
AcDbScale
 70
     0
300
1/8" = 1'-0"
140
0.125
141
12.0
290
     0
  0
SCALE
  5
5F
102
{ACAD_REACTORS
330
47
102
}
330
47
100
AcDbScale
 70
     0
300
3/16" = 1'-0"
140
0.1875
141
12.0
290
     0
  0
SCALE
  5
60
102
{ACAD_REACTORS
330
47
102
}
330
47
100
AcDbScale
 70
     0
300
1/4" = 1'-0"
140
0.25
141
12.0
290
     0
  0
SCALE
  5
61
102
{ACAD_REACTORS
330
47
102
}
330
47
100
AcDbScale
 70
     0
300
3/8" = 1'-0"
140
0.375
141
12.0
290
     0
  0
SCALE
  5
62
102
{ACAD_REACTORS
330
47
102
}
330
47
100
AcDbScale
 70
     0
300
1/2" = 1'-0"
140
0.5
141
12.0
290
     0
  0
SCALE
  5
63
102
{ACAD_REACTORS
330
47
102
}
330
47
100
AcDbScale
 70
     0
300
3/4" = 1'-0"
140
0.75
141
12.0
290
     0
  0
SCALE
  5
64
102
{ACAD_REACTORS
330
47
102
}
330
47
100
AcDbScale
 70
     0
300
1" = 1'-0"
140
1.0
141
12.0
290
     0
  0
SCALE
  5
65
102
{ACAD_REACTORS
330
47
102
}
330
47
100
AcDbScale
 70
     0
300
1-1/2" = 1'-0"
140
1.5
141
12.0
290
     0
  0
SCALE
  5
66
102
{ACAD_REACTORS
330
47
102
}
330
47
100
AcDbScale
 70
     0
300
3" = 1'-0"
140
3.0
141
12.0
290
     0
  0
SCALE
  5
67
102
{ACAD_REACTORS
330
47
102
}
330
47
100
AcDbScale
 70
     0
300
6" = 1'-0"
140
6.0
141
12.0
290
     0
  0
SCALE
  5
68
102
{ACAD_REACTORS
330
47
102
}
330
47
100
AcDbScale
 70
     0
300
1'-0" = 1'-0"
140
12.0
141
12.0
290
     0
  0
TABLESTYLE
  5
6A
102
{ACAD_REACTORS
330
69
102
}
102
{ACAD_XDICTIONARY
360
1D8
102
}
330
69
100
AcDbTableStyle
  3
Standard
 70
     0
 71
     0
 40
0.06
 41
0.06
280
     0
281
     0
  7
Standard
140
0.18
170
     2
 62
     0
 63
   257
283
     0
274
    -2
284
     1
 64
     0
275
    -2
285
     1
 65
     0
276
    -2
286
     1
 66
     0
277
    -2
287
     1
 67
     0
278
    -2
288
     1
 68
     0
279
    -2
289
     1
 69
     0
  7
Standard
140
0.25
170
     5
 62
     0
 63
   257
283
     0
274
    -2
284
     1
 64
     0
275
    -2
285
     1
 65
     0
276
    -2
286
     1
 66
     0
277
    -2
287
     1
 67
     0
278
    -2
288
     1
 68
     0
279
    -2
289
     1
 69
     0
  7
Standard
140
0.18
170
     5
 62
     0
 63
   257
283
     0
274
    -2
284
     1
 64
     0
275
    -2
285
     1
 65
     0
276
    -2
286
     1
 66
     0
277
    -2
287
     1
 67
     0
278
    -2
288
     1
 68
     0
279
    -2
289
     1
 69
     0
  0
VISUALSTYLE
  5
2F
102
{ACAD_REACTORS
330
2A
102
}
102
{ACAD_XDICTIONARY
360
1AA
102
}
330
2A
100
AcDbVisualStyle
  2
2dWireframe
 70
     4
 71
     0
 72
     2
 73
     0
 90
        0
 40
0.6
 41
30.0
 62
     5
 63
     7
421
 16777215
 74
     1
 91
        4
 64
     7
 65
   257
 75
     1
175
     1
 42
1.0
 92
        0
 66
   257
 43
1.0
 76
     1
 77
     6
 78
     2
 67
     7
 79
     5
170
     0
171
     0
290
     0
174
     0
 93
        1
 44
0.0
173
     0
291
     0
 45
0.0
1001
ACAD
1000
AcDbSavedByObjectVersion
1070
     0
  0
VISUALSTYLE
  5
32
102
{ACAD_REACTORS
330
2A
102
}
102
{ACAD_XDICTIONARY
360
1B0
102
}
330
2A
100
AcDbVisualStyle
  2
Basic
 70
     7
 71
     1
 72
     0
 73
     1
 90
        0
 40
0.6
 41
30.0
 62
     5
 63
     7
421
 16777215
 74
     0
 91
        4
 64
     7
 65
   257
 75
     1
175
     1
 42
1.0
 92
        8
 66
     7
 43
1.0
 76
     1
 77
     6
 78
     2
 67
     7
 79
     5
170
     0
171
     0
290
     0
174
     0
 93
        1
 44
0.0
173
     0
291
     1
 45
0.0
1001
ACAD
1000
AcDbSavedByObjectVersion
1070
     0
  0
VISUALSTYLE
  5
36
102
{ACAD_REACTORS
330
2A
102
}
102
{ACAD_XDICTIONARY
360
1B8
102
}
330
2A
100
AcDbVisualStyle
  2
Brighten
 70
    12
 71
     2
 72
     2
 73
     0
 90
        0
 40
0.6
 41
30.0
 62
     5
 63
     7
421
 16777215
 74
     1
 91
        4
 64
     7
 65
   257
 75
     1
175
     1
 42
1.0
 92
        8
 66
     7
 43
1.0
 76
     1
 77
     6
 78
     2
 67
     7
 79
     5
170
     0
171
     0
290
     0
174
     0
 93
        1
 44
50.0
173
     0
291
     1
 45
0.0
1001
ACAD
1000
AcDbSavedByObjectVersion
1070
     0
  0
VISUALSTYLE
  5
3A
102
{ACAD_REACTORS
330
2A
102
}
102
{ACAD_XDICTIONARY
360
1C0
102
}
330
2A
100
AcDbVisualStyle
  2
ColorChange
 70
    16
 71
     2
 72
     2
 73
     3
 90
        0
 40
0.6
 41
30.0
 62
     5
 63
     8
421
  8421504
 74
     1
 91
        4
 64
     7
 65
   257
 75
     1
175
     1
 42
1.0
 92
        8
 66
     8
424
  8421504
 43
1.0
 76
     1
 77
     6
 78
     2
 67
     7
 79
     5
170
     0
171
     0
290
     0
174
     0
 93
        1
 44
0.0
173
     0
291
     1
 45
0.0
1001
ACAD
1000
AcDbSavedByObjectVersion
1070
     0
  0
VISUALSTYLE
  5
34
102
{ACAD_REACTORS
330
2A
102
}
102
{ACAD_XDICTIONARY
360
1B4
102
}
330
2A
100
AcDbVisualStyle
  2
Conceptual
 70
     9
 71
     3
 72
     2
 73
     0
 90
        0
 40
0.6
 41
30.0
 62
     5
 63
     7
421
 16777215
 74
     2
 91
        2
 64
     7
 65
   257
 75
     1
175
     1
 42
179.0
 92
        8
 66
     7
 43
1.0
 76
     1
 77
     6
 78
     2
 67
     7
 79
     3
170
     0
171
     0
290
     0
174
     0
 93
        1
 44
0.0
173
     0
291
     0
 45
0.0
1001
ACAD
1000
AcDbSavedByObjectVersion
1070
     0
  0
VISUALSTYLE
  5
35
102
{ACAD_REACTORS
330
2A
102
}
102
{ACAD_XDICTIONARY
360
1B6
102
}
330
2A
100
AcDbVisualStyle
  2
Dim
 70
    11
 71
     2
 72
     2
 73
     0
 90
        0
 40
0.6
 41
30.0
 62
     5
 63
     7
421
 16777215
 74
     1
 91
        4
 64
     7
 65
   257
 75
     1
175
     1
 42
1.0
 92
        8
 66
     7
 43
1.0
 76
     1
 77
     6
 78
     2
 67
     7
 79
     5
170
     0
171
     0
290
     0
174
     0
 93
        1
 44
-50.0
173
     0
291
     1
 45
0.0
1001
ACAD
1000
AcDbSavedByObjectVersion
1070
     0
  0
VISUALSTYLE
  5
3D
102
{ACAD_REACTORS
330
2A
102
}
102
{ACAD_XDICTIONARY
360
1C6
102
}
330
2A
100
AcDbVisualStyle
  2
EdgeColorOff
 70
    22
 71
     2
 72
     2
 73
     0
 90
        0
 40
0.6
 41
30.0
 62
     5
 63
     7
421
 16777215
 74
     1
 91
        4
 64
     7
 65
   257
 75
     1
175
     1
 42
1.0
 92
        8
 66
     7
 43
1.0
 76
     1
 77
     6
 78
     2
 67
     7
 79
     5
170
     0
171
     0
290
     0
174
     0
 93
        1
 44
0.0
173
     0
291
     1
 45
0.0
1001
ACAD
1000
AcDbSavedByObjectVersion
1070
     0
  0
VISUALSTYLE
  5
39
102
{ACAD_REACTORS
330
2A
102
}
102
{ACAD_XDICTIONARY
360
1BE
102
}
330
2A
100
AcDbVisualStyle
  2
Facepattern
 70
    15
 71
     2
 72
     2
 73
     0
 90
        0
 40
0.6
 41
30.0
 62
     5
 63
     7
421
 16777215
 74
     1
 91
        4
 64
     7
 65
   257
 75
     1
175
     1
 42
1.0
 92
        8
 66
     7
 43
1.0
 76
     1
 77
     6
 78
     2
 67
     7
 79
     5
170
     0
171
     0
290
     0
174
     0
 93
        1
 44
0.0
173
     0
291
     1
 45
0.0
1001
ACAD
1000
AcDbSavedByObjectVersion
1070
     0
  0
VISUALSTYLE
  5
2B
102
{ACAD_REACTORS
330
2A
102
}
102
{ACAD_XDICTIONARY
360
1A2
102
}
330
2A
100
AcDbVisualStyle
  2
Flat
 70
     0
 71
     2
 72
     1
 73
     1
 90
        2
 40
0.6
 41
30.0
 62
     5
 63
     7
421
 16777215
 74
     0
 91
        0
 64
     7
 65
   257
 75
     1
175
     1
 42
1.0
 92
        8
 66
     7
 43
1.0
 76
     1
 77
     6
 78
     2
 67
     7
 79
     5
170
     0
171
     0
290
     0
174
     0
 93
       13
 44
0.0
173
     0
291
     1
 45
0.0
1001
ACAD
1000
AcDbSavedByObjectVersion
1070
     0
  0
VISUALSTYLE
  5
2C
102
{ACAD_REACTORS
330
2A
102
}
102
{ACAD_XDICTIONARY
360
1A4
102
}
330
2A
100
AcDbVisualStyle
  2
FlatWithEdges
 70
     1
 71
     2
 72
     1
 73
     1
 90
        2
 40
0.6
 41
30.0
 62
     5
 63
     7
421
 16777215
 74
     1
 91
        0
 64
     7
 65
   257
 75
     1
175
     1
 42
1.0
 92
        0
 66
   257
 43
1.0
 76
     1
 77
     6
 78
     2
 67
     7
 79
     5
170
     0
171
     0
290
     0
174
     0
 93
       13
 44
0.0
173
     0
291
     1
 45
0.0
1001
ACAD
1000
AcDbSavedByObjectVersion
1070
     0
  0
VISUALSTYLE
  5
2D
102
{ACAD_REACTORS
330
2A
102
}
102
{ACAD_XDICTIONARY
360
1A6
102
}
330
2A
100
AcDbVisualStyle
  2
Gouraud
 70
     2
 71
     2
 72
     2
 73
     1
 90
        2
 40
0.6
 41
30.0
 62
     5
 63
     7
421
 16777215
 74
     0
 91
        0
 64
     7
 65
   257
 75
     1
175
     1
 42
1.0
 92
        0
 66
     7
 43
1.0
 76
     1
 77
     6
 78
     2
 67
     7
 79
     5
170
     0
171
     0
290
     0
174
     0
 93
       13
 44
0.0
173
     0
291
     1
 45
0.0
1001
ACAD
1000
AcDbSavedByObjectVersion
1070
     0
  0
VISUALSTYLE
  5
2E
102
{ACAD_REACTORS
330
2A
102
}
102
{ACAD_XDICTIONARY
360
1A8
102
}
330
2A
100
AcDbVisualStyle
  2
GouraudWithEdges
 70
     3
 71
     2
 72
     2
 73
     1
 90
        2
 40
0.6
 41
30.0
 62
     5
 63
     7
421
 16777215
 74
     1
 91
        0
 64
     7
 65
   257
 75
     1
175
     1
 42
1.0
 92
        0
 66
   257
 43
1.0
 76
     1
 77
     6
 78
     2
 67
     7
 79
     5
170
     0
171
     0
290
     0
174
     0
 93
       13
 44
0.0
173
     0
291
     1
 45
0.0
1001
ACAD
1000
AcDbSavedByObjectVersion
1070
     0
  0
VISUALSTYLE
  5
31
102
{ACAD_REACTORS
330
2A
102
}
102
{ACAD_XDICTIONARY
360
1AE
102
}
330
2A
100
AcDbVisualStyle
  2
Hidden
 70
     6
 71
     1
 72
     2
 73
     2
 90
        0
 40
0.6
 41
30.0
 62
     5
 63
     7
421
 16777215
 74
     2
 91
        2
 64
     7
 65
   257
 75
     2
175
     1
 42
40.0
 92
        0
 66
   257
 43
1.0
 76
     1
 77
     6
 78
     2
 67
     7
 79
     3
170
     0
171
     0
290
     0
174
     0
 93
        1
 44
0.0
173
     0
291
     0
 45
0.0
1001
ACAD
1000
AcDbSavedByObjectVersion
1070
     0
  0
VISUALSTYLE
  5
3B
102
{ACAD_REACTORS
330
2A
102
}
102
{ACAD_XDICTIONARY
360
1C2
102
}
330
2A
100
AcDbVisualStyle
  2
JitterOff
 70
    20
 71
     2
 72
     2
 73
     0
 90
        0
 40
0.6
 41
30.0
 62
     5
 63
     7
421
 16777215
 74
     1
 91
        4
 64
     7
 65
   257
 75
     1
175
     1
 42
1.0
 92
       10
 66
     7
 43
1.0
 76
     1
 77
     6
 78
     2
 67
     7
 79
     5
170
     0
171
     0
290
     0
174
     0
 93
        1
 44
0.0
173
     0
291
     1
 45
0.0
1001
ACAD
1000
AcDbSavedByObjectVersion
1070
     0
  0
VISUALSTYLE
  5
38
102
{ACAD_REACTORS
330
2A
102
}
102
{ACAD_XDICTIONARY
360
1BC
102
}
330
2A
100
AcDbVisualStyle
  2
Linepattern
 70
    14
 71
     2
 72
     2
 73
     0
 90
        0
 40
0.6
 41
30.0
 62
     5
 63
     7
421
 16777215
 74
     1
 91
        4
 64
     7
 65
   257
 75
     7
175
     7
 42
1.0
 92
        8
 66
     7
 43
1.0
 76
     1
 77
     6
 78
     2
 67
     7
 79
     5
170
     0
171
     0
290
     0
174
     0
 93
        1
 44
0.0
173
     0
291
     1
 45
0.0
1001
ACAD
1000
AcDbSavedByObjectVersion
1070
     0
  0
VISUALSTYLE
  5
3C
102
{ACAD_REACTORS
330
2A
102
}
102
{ACAD_XDICTIONARY
360
1C4
102
}
330
2A
100
AcDbVisualStyle
  2
OverhangOff
 70
    21
 71
     2
 72
     2
 73
     0
 90
        0
 40
0.6
 41
30.0
 62
     5
 63
     7
421
 16777215
 74
     1
 91
        4
 64
     7
 65
   257
 75
     1
175
     1
 42
1.0
 92
        9
 66
     7
 43
1.0
 76
     1
 77
     6
 78
     2
 67
     7
 79
     5
170
     0
171
     0
290
     0
174
     0
 93
        1
 44
0.0
173
     0
291
     1
 45
0.0
1001
ACAD
1000
AcDbSavedByObjectVersion
1070
     0
  0
VISUALSTYLE
  5
33
102
{ACAD_REACTORS
330
2A
102
}
102
{ACAD_XDICTIONARY
360
1B2
102
}
330
2A
100
AcDbVisualStyle
  2
Realistic
 70
     8
 71
     2
 72
     3
 73
     0
 90
        2
 40
0.6
 41
30.0
 62
     5
 63
     7
421
 16777215
 74
     0
 91
        0
 64
     7
 65
   257
 75
     1
175
     1
 42
1.0
 92
        8
 66
   257
 43
1.0
 76
     1
 77
     6
 78
     2
 67
     7
 79
     3
170
     0
171
     0
290
     0
174
     0
 93
       13
 44
0.0
173
     0
291
     0
 45
0.0
1001
ACAD
1000
AcDbSavedByObjectVersion
1070
     0
  0
VISUALSTYLE
  5
42
102
{ACAD_REACTORS
330
2A
102
}
102
{ACAD_XDICTIONARY
360
1D0
102
}
330
2A
100
AcDbVisualStyle
  2
Shaded
 70
    27
 71
     2
 72
     2
 73
     1
 90
        2
 40
0.6
 41
30.0
 62
     5
 63
     7
421
 16777215
 74
     0
 91
        4
 64
     7
 65
   257
 75
     1
175
     1
 42
1.0
 92
        8
 66
   257
 43
1.0
 76
     1
 77
     6
 78
     2
 67
     8
425
  7895160
 79
     3
170
     0
171
     0
290
     0
174
     0
 93
        5
 44
0.0
173
     0
291
     0
 45
0.0
1001
ACAD
1000
AcDbSavedByObjectVersion
1070
     0
  0
VISUALSTYLE
  5
41
102
{ACAD_REACTORS
330
2A
102
}
102
{ACAD_XDICTIONARY
360
1CE
102
}
330
2A
100
AcDbVisualStyle
  2
Shaded with edges
 70
    26
 71
     2
 72
     2
 73
     1
 90
        2
 40
0.6
 41
30.0
 62
     5
 63
     7
421
 16777215
 74
     1
 91
       10
 64
     7
 65
   257
 75
     2
175
     1
 42
1.0
 92
        8
 66
   257
 43
1.0
 76
     1
 77
     6
 78
     2
 67
     7
 79
     3
170
     0
171
     0
290
     0
174
     0
 93
        5
 44
0.0
173
     0
291
     0
 45
0.0
1001
ACAD
1000
AcDbSavedByObjectVersion
1070
     0
  0
VISUALSTYLE
  5
3E
102
{ACAD_REACTORS
330
2A
102
}
102
{ACAD_XDICTIONARY
360
1C8
102
}
330
2A
100
AcDbVisualStyle
  2
Shades of Gray
 70
    23
 71
     2
 72
     2
 73
     3
 90
        0
 40
0.6
 41
30.0
 62
     5
 63
     7
421
 16777215
 74
     2
 91
        2
 64
     7
 65
     7
 75
     1
175
     1
 42
40.0
 92
        8
 66
     7
 43
1.0
 76
     1
 77
     6
 78
     2
 67
     7
 79
     3
170
     0
171
     0
290
     0
174
     0
 93
        1
 44
0.0
173
     0
291
     0
 45
0.0
1001
ACAD
1000
AcDbSavedByObjectVersion
1070
     0
  0
VISUALSTYLE
  5
3F
102
{ACAD_REACTORS
330
2A
102
}
102
{ACAD_XDICTIONARY
360
1CA
102
}
330
2A
100
AcDbVisualStyle
  2
Sketchy
 70
    24
 71
     1
 72
     2
 73
     2
 90
        0
 40
0.6
 41
30.0
 62
     5
 63
     7
421
 16777215
 74
     2
 91
        2
 64
     7
 65
     7
 75
     1
175
     1
 42
40.0
 92
       11
 66
     7
 43
1.0
 76
     1
 77
     6
 78
     2
 67
     7
 79
     6
170
     0
171
     0
290
     0
174
     0
 93
        1
 44
0.0
173
     0
291
     0
 45
0.0
1001
ACAD
1000
AcDbSavedByObjectVersion
1070
     0
  0
VISUALSTYLE
  5
37
102
{ACAD_REACTORS
330
2A
102
}
102
{ACAD_XDICTIONARY
360
1BA
102
}
330
2A
100
AcDbVisualStyle
  2
Thicken
 70
    13
 71
     2
 72
     2
 73
     0
 90
        0
 40
0.6
 41
30.0
 62
     5
 63
     7
421
 16777215
 74
     1
 91
        4
 64
     7
 65
   257
 75
     1
175
     1
 42
1.0
 92
       12
 66
     7
 43
1.0
 76
     1
 77
     6
 78
     2
 67
     7
 79
     5
170
     0
171
     0
290
     0
174
     0
 93
        1
 44
0.0
173
     0
291
     1
 45
0.0
1001
ACAD
1000
AcDbSavedByObjectVersion
1070
     0
  0
VISUALSTYLE
  5
30
102
{ACAD_REACTORS
330
2A
102
}
102
{ACAD_XDICTIONARY
360
1AC
102
}
330
2A
100
AcDbVisualStyle
  2
Wireframe
 70
     5
 71
     0
 72
     2
 73
     0
 90
        0
 40
0.6
 41
30.0
 62
     5
 63
     7
421
 16777215
 74
     1
 91
        4
 64
     7
 65
   257
 75
     1
175
     1
 42
1.0
 92
        0
 66
   257
 43
1.0
 76
     1
 77
     6
 78
     2
 67
     7
 79
     3
170
     0
171
     0
290
     0
174
     0
 93
        1
 44
0.0
173
     0
291
     0
 45
0.0
1001
ACAD
1000
AcDbSavedByObjectVersion
1070
     0
  0
VISUALSTYLE
  5
40
102
{ACAD_REACTORS
330
2A
102
}
102
{ACAD_XDICTIONARY
360
1CC
102
}
330
2A
100
AcDbVisualStyle
  2
X-Ray
 70
    25
 71
     2
 72
     2
 73
     1
 90
        1
 40
0.5
 41
30.0
 62
     5
 63
     7
421
 16777215
 74
     1
 91
        0
 64
     7
 65
   257
 75
     1
175
     1
 42
1.0
 92
        8
 66
     7
 43
1.0
 76
     1
 77
     6
 78
     2
 67
     7
 79
     3
170
     0
171
     0
290
     0
174
     0
 93
       13
 44
0.0
173
     0
291
     0
 45
0.0
1001
ACAD
1000
AcDbSavedByObjectVersion
1070
     0
  0
DICTIONARYVAR
  5
19F
102
{ACAD_REACTORS
330
19E
102
}
330
19E
100
DictionaryVariables
280
     0
  1
1:1
  0
DICTIONARYVAR
  5
1E0
102
{ACAD_REACTORS
330
19E
102
}
330
19E
100
DictionaryVariables
280
     0
  1
Standard
  0
DICTIONARYVAR
  5
1DF
102
{ACAD_REACTORS
330
19E
102
}
330
19E
100
DictionaryVariables
280
     0
  1
Standard
  0
DICTIONARYVAR
  5
1A0
102
{ACAD_REACTORS
330
19E
102
}
330
19E
100
DictionaryVariables
280
     0
  1
1
  0
DICTIONARYVAR
  5
1A1
102
{ACAD_REACTORS
330
19E
102
}
330
19E
100
DictionaryVariables
280
     0
  1
2
  0
DICTIONARY
  5
1D4
330
45
100
AcDbDictionary
280
     1
281
     1
  3
ACAD_XREC_ROUNDTRIP
360
1D5
  0
DICTIONARY
  5
1D2
330
44
100
AcDbDictionary
280
     1
281
     1
  3
ACAD_XREC_ROUNDTRIP
360
1D3
  0
DICTIONARY
  5
1D6
330
46
100
AcDbDictionary
280
     1
281
     1
  3
ACAD_XREC_ROUNDTRIP
360
1D7
  0
DICTIONARY
  5
1DC
330
6C
100
AcDbDictionary
280
     1
281
     1
  3
ACAD_XREC_ROUNDTRIP
360
1DD
  0
DICTIONARY
  5
1D8
330
6A
100
AcDbDictionary
280
     1
281
     1
  3
ACAD_ROUNDTRIP_2008_TABLESTYLE_CELLSTYLEMAP
360
1DA
  3
ACAD_XREC_ROUNDTRIP
360
1D9
  0
DICTIONARY
  5
1AA
330
2F
100
AcDbDictionary
280
     1
281
     1
  3
ACAD_XREC_ROUNDTRIP
360
1AB
  0
DICTIONARY
  5
1B0
330
32
100
AcDbDictionary
280
     1
281
     1
  3
ACAD_XREC_ROUNDTRIP
360
1B1
  0
DICTIONARY
  5
1B8
330
36
100
AcDbDictionary
280
     1
281
     1
  3
ACAD_XREC_ROUNDTRIP
360
1B9
  0
DICTIONARY
  5
1C0
330
3A
100
AcDbDictionary
280
     1
281
     1
  3
ACAD_XREC_ROUNDTRIP
360
1C1
  0
DICTIONARY
  5
1B4
330
34
100
AcDbDictionary
280
     1
281
     1
  3
ACAD_XREC_ROUNDTRIP
360
1B5
  0
DICTIONARY
  5
1B6
330
35
100
AcDbDictionary
280
     1
281
     1
  3
ACAD_XREC_ROUNDTRIP
360
1B7
  0
DICTIONARY
  5
1C6
330
3D
100
AcDbDictionary
280
     1
281
     1
  3
ACAD_XREC_ROUNDTRIP
360
1C7
  0
DICTIONARY
  5
1BE
330
39
100
AcDbDictionary
280
     1
281
     1
  3
ACAD_XREC_ROUNDTRIP
360
1BF
  0
DICTIONARY
  5
1A2
330
2B
100
AcDbDictionary
280
     1
281
     1
  3
ACAD_XREC_ROUNDTRIP
360
1A3
  0
DICTIONARY
  5
1A4
330
2C
100
AcDbDictionary
280
     1
281
     1
  3
ACAD_XREC_ROUNDTRIP
360
1A5
  0
DICTIONARY
  5
1A6
330
2D
100
AcDbDictionary
280
     1
281
     1
  3
ACAD_XREC_ROUNDTRIP
360
1A7
  0
DICTIONARY
  5
1A8
330
2E
100
AcDbDictionary
280
     1
281
     1
  3
ACAD_XREC_ROUNDTRIP
360
1A9
  0
DICTIONARY
  5
1AE
330
31
100
AcDbDictionary
280
     1
281
     1
  3
ACAD_XREC_ROUNDTRIP
360
1AF
  0
DICTIONARY
  5
1C2
330
3B
100
AcDbDictionary
280
     1
281
     1
  3
ACAD_XREC_ROUNDTRIP
360
1C3
  0
DICTIONARY
  5
1BC
330
38
100
AcDbDictionary
280
     1
281
     1
  3
ACAD_XREC_ROUNDTRIP
360
1BD
  0
DICTIONARY
  5
1C4
330
3C
100
AcDbDictionary
280
     1
281
     1
  3
ACAD_XREC_ROUNDTRIP
360
1C5
  0
DICTIONARY
  5
1B2
330
33
100
AcDbDictionary
280
     1
281
     1
  3
ACAD_XREC_ROUNDTRIP
360
1B3
  0
DICTIONARY
  5
1D0
330
42
100
AcDbDictionary
280
     1
281
     1
  3
ACAD_XREC_ROUNDTRIP
360
1D1
  0
DICTIONARY
  5
1CE
330
41
100
AcDbDictionary
280
     1
281
     1
  3
ACAD_XREC_ROUNDTRIP
360
1CF
  0
DICTIONARY
  5
1C8
330
3E
100
AcDbDictionary
280
     1
281
     1
  3
ACAD_XREC_ROUNDTRIP
360
1C9
  0
DICTIONARY
  5
1CA
330
3F
100
AcDbDictionary
280
     1
281
     1
  3
ACAD_XREC_ROUNDTRIP
360
1CB
  0
DICTIONARY
  5
1BA
330
37
100
AcDbDictionary
280
     1
281
     1
  3
ACAD_XREC_ROUNDTRIP
360
1BB
  0
DICTIONARY
  5
1AC
330
30
100
AcDbDictionary
280
     1
281
     1
  3
ACAD_XREC_ROUNDTRIP
360
1AD
  0
DICTIONARY
  5
1CC
330
40
100
AcDbDictionary
280
     1
281
     1
  3
ACAD_XREC_ROUNDTRIP
360
1CD
  0
XRECORD
  5
1D5
102
{ACAD_REACTORS
330
1D4
102
}
330
1D4
100
AcDbXrecord
280
     1
102
MATERIAL
148
0.0
149
0.0
149
0.0
 93
        0
 94
      127
282
     0
 72
     1
 77
     1
171
     1
175
     1
179
     1
273
     0
  0
XRECORD
  5
1D3
102
{ACAD_REACTORS
330
1D2
102
}
330
1D2
100
AcDbXrecord
280
     1
102
MATERIAL
148
0.0
149
0.0
149
0.0
 93
        0
 94
      127
282
     0
 72
     1
 77
     1
171
     1
175
     1
179
     1
273
     0
  0
XRECORD
  5
1D7
102
{ACAD_REACTORS
330
1D6
102
}
330
1D6
100
AcDbXrecord
280
     1
102
MATERIAL
148
0.0
149
0.0
149
0.0
 93
        0
 94
      127
282
     0
 72
     1
 77
     1
171
     1
175
     1
179
     1
273
     0
  0
XRECORD
  5
1DD
102
{ACAD_REACTORS
330
1DC
102
}
330
1DC
100
AcDbXrecord
280
     1
102
ACAD_ROUNDTRIP_2010_MLEADER_STYLE
  0
CELLSTYLEMAP
  5
1DA
102
{ACAD_REACTORS
330
1D8
102
}
330
1D8
100
AcDbCellStyleMap
 90
        3
300
CELLSTYLE
  1
TABLEFORMAT_BEGIN
 90
        5
170
     1
 91
        0
 92
    32768
 62
   257
 93
        1
300
CONTENTFORMAT
  1
CONTENTFORMAT_BEGIN
 90
        0
 91
        0
 92
        4
 93
        0
300

 40
0.0
140
1.0
 94
        5
 62
     0
340
11
144
0.25
309
CONTENTFORMAT_END
171
     1
301
MARGIN
  1
CELLMARGIN_BEGIN
 40
0.06
 40
0.06
 40
0.06
 40
0.06
 40
0.06
 40
0.06
309
CELLMARGIN_END
 94
        6
 95
        1
302
GRIDFORMAT
  1
GRIDFORMAT_BEGIN
 90
        0
 91
        1
 62
     0
 92
       -2
340
14
 93
        0
 40
0.045
309
GRIDFORMAT_END
 95
        2
302
GRIDFORMAT
  1
GRIDFORMAT_BEGIN
 90
        0
 91
        1
 62
     0
 92
       -2
340
14
 93
        0
 40
0.045
309
GRIDFORMAT_END
 95
        4
302
GRIDFORMAT
  1
GRIDFORMAT_BEGIN
 90
        0
 91
        1
 62
     0
 92
       -2
340
14
 93
        0
 40
0.045
309
GRIDFORMAT_END
 95
        8
302
GRIDFORMAT
  1
GRIDFORMAT_BEGIN
 90
        0
 91
        1
 62
     0
 92
       -2
340
14
 93
        0
 40
0.045
309
GRIDFORMAT_END
 95
       16
302
GRIDFORMAT
  1
GRIDFORMAT_BEGIN
 90
        0
 91
        1
 62
     0
 92
       -2
340
14
 93
        0
 40
0.045
309
GRIDFORMAT_END
 95
       32
302
GRIDFORMAT
  1
GRIDFORMAT_BEGIN
 90
        0
 91
        1
 62
     0
 92
       -2
340
14
 93
        0
 40
0.045
309
GRIDFORMAT_END
309
TABLEFORMAT_END
  1
CELLSTYLE_BEGIN
 90
        1
 91
        1
300
_TITLE
309
CELLSTYLE_END
300
CELLSTYLE
  1
TABLEFORMAT_BEGIN
 90
        5
170
     1
 91
        0
 92
        0
 62
   257
 93
        1
300
CONTENTFORMAT
  1
CONTENTFORMAT_BEGIN
 90
        0
 91
        0
 92
        4
 93
        0
300

 40
0.0
140
1.0
 94
        5
 62
     0
340
11
144
0.18
309
CONTENTFORMAT_END
171
     1
301
MARGIN
  1
CELLMARGIN_BEGIN
 40
0.06
 40
0.06
 40
0.06
 40
0.06
 40
0.06
 40
0.06
309
CELLMARGIN_END
 94
        6
 95
        1
302
GRIDFORMAT
  1
GRIDFORMAT_BEGIN
 90
        0
 91
        1
 62
     0
 92
       -2
340
14
 93
        0
 40
0.045
309
GRIDFORMAT_END
 95
        2
302
GRIDFORMAT
  1
GRIDFORMAT_BEGIN
 90
        0
 91
        1
 62
     0
 92
       -2
340
14
 93
        0
 40
0.045
309
GRIDFORMAT_END
 95
        4
302
GRIDFORMAT
  1
GRIDFORMAT_BEGIN
 90
        0
 91
        1
 62
     0
 92
       -2
340
14
 93
        0
 40
0.045
309
GRIDFORMAT_END
 95
        8
302
GRIDFORMAT
  1
GRIDFORMAT_BEGIN
 90
        0
 91
        1
 62
     0
 92
       -2
340
14
 93
        0
 40
0.045
309
GRIDFORMAT_END
 95
       16
302
GRIDFORMAT
  1
GRIDFORMAT_BEGIN
 90
        0
 91
        1
 62
     0
 92
       -2
340
14
 93
        0
 40
0.045
309
GRIDFORMAT_END
 95
       32
302
GRIDFORMAT
  1
GRIDFORMAT_BEGIN
 90
        0
 91
        1
 62
     0
 92
       -2
340
14
 93
        0
 40
0.045
309
GRIDFORMAT_END
309
TABLEFORMAT_END
  1
CELLSTYLE_BEGIN
 90
        2
 91
        1
300
_HEADER
309
CELLSTYLE_END
300
CELLSTYLE
  1
TABLEFORMAT_BEGIN
 90
        5
170
     1
 91
        0
 92
        0
 62
   257
 93
        1
300
CONTENTFORMAT
  1
CONTENTFORMAT_BEGIN
 90
        0
 91
        0
 92
        4
 93
        0
300

 40
0.0
140
1.0
 94
        2
 62
     0
340
11
144
0.18
309
CONTENTFORMAT_END
171
     1
301
MARGIN
  1
CELLMARGIN_BEGIN
 40
0.06
 40
0.06
 40
0.06
 40
0.06
 40
0.06
 40
0.06
309
CELLMARGIN_END
 94
        6
 95
        1
302
GRIDFORMAT
  1
GRIDFORMAT_BEGIN
 90
        0
 91
        1
 62
     0
 92
       -2
340
14
 93
        0
 40
0.045
309
GRIDFORMAT_END
 95
        2
302
GRIDFORMAT
  1
GRIDFORMAT_BEGIN
 90
        0
 91
        1
 62
     0
 92
       -2
340
14
 93
        0
 40
0.045
309
GRIDFORMAT_END
 95
        4
302
GRIDFORMAT
  1
GRIDFORMAT_BEGIN
 90
        0
 91
        1
 62
     0
 92
       -2
340
14
 93
        0
 40
0.045
309
GRIDFORMAT_END
 95
        8
302
GRIDFORMAT
  1
GRIDFORMAT_BEGIN
 90
        0
 91
        1
 62
     0
 92
       -2
340
14
 93
        0
 40
0.045
309
GRIDFORMAT_END
 95
       16
302
GRIDFORMAT
  1
GRIDFORMAT_BEGIN
 90
        0
 91
        1
 62
     0
 92
       -2
340
14
 93
        0
 40
0.045
309
GRIDFORMAT_END
 95
       32
302
GRIDFORMAT
  1
GRIDFORMAT_BEGIN
 90
        0
 91
        1
 62
     0
 92
       -2
340
14
 93
        0
 40
0.045
309
GRIDFORMAT_END
309
TABLEFORMAT_END
  1
CELLSTYLE_BEGIN
 90
        3
 91
        2
300
_DATA
309
CELLSTYLE_END
  0
XRECORD
  5
1D9
102
{ACAD_REACTORS
330
1D8
102
}
330
1D8
100
AcDbXrecord
280
     1
102
ACAD_ROUNDTRIP_PRE2007_TABLESTYLE
 90
        4
 91
        0
  1

 92
        4
 93
        0
  2

 94
        4
 95
        0
  3

  0
XRECORD
  5
1AB
102
{ACAD_REACTORS
330
1AA
102
}
330
1AA
100
AcDbXrecord
280
     1
102
RTVSPropertyOp0
 70
     1
102
RTVSPropertyOp1
 70
     1
102
RTVSPropertyOp2
 70
     1
102
RTVSPropertyOp3
 70
     1
102
RTVSPropertyOp4
 70
     1
102
RTVSPropertyOp5
 70
     1
102
RTVSPropertyOp6
 70
     1
102
RTVSPropertyOp7
 70
     1
102
RTVSPropertyOp8
 70
     1
102
RTVSPropertyOp9
 70
     1
102
RTVSPropertyOp10
 70
     1
102
RTVSPropertyOp11
 70
     1
102
RTVSPropertyOp12
 70
     1
102
RTVSPropertyOp13
 70
     1
102
RTVSPropertyOp14
 70
     1
102
RTVSPropertyOp15
 70
     1
102
RTVSPropertyOp16
 70
     1
102
RTVSPropertyOp17
 70
     1
102
RTVSPropertyOp18
 70
     1
102
RTVSPropertyOp19
 70
     1
102
RTVSPropertyOp20
 70
     1
102
RTVSPropertyOp21
 70
     1
102
RTVSPropertyOp22
 70
     1
102
RTVSPropertyOp23
 70
     1
102
RTVSPropertyOp24
 70
     1
102
RTVSPropertyOp25
 70
     1
102
RTVSPropertyOp26
 70
     1
102
RTVSPropertyOp27
 70
     1
102
RTVSPropertyOp28
 70
     1
102
RTVSPropertyOp29
 70
     1
102
RTVSPropertyOp30
 70
     1
102
RTVSPropertyOp31
 70
     1
102
RTVSPropertyOp32
 70
     1
102
RTVSPropertyOp33
 70
     1
102
RTVSPropertyOp34
 70
     1
102
RTVSPropertyOp35
 70
     1
102
RTVSPropertyOp36
 70
     1
102
RTVSPropertyOp37
 70
     1
102
RTVSPropertyOp38
 70
     1
102
RTVSPropertyOp39
 70
     1
102
RTVSPropertyOp40
 70
     1
102
RTVSPropertyOp41
 70
     1
102
RTVSPropertyOp42
 70
     1
102
RTVSPropertyOp43
 70
     1
102
RTVSPropertyOp44
 70
     1
102
RTVSPropertyOp45
 70
     1
102
RTVSPropertyOp46
 70
     1
102
RTVSPropertyOp47
 70
     1
102
RTVSPropertyOp48
 70
     1
102
RTVSPropertyOp49
 70
     1
102
RTVSPropertyOp50
 70
     1
102
RTVSPropertyOp51
 70
     0
102
RTVSPropertyOp52
 70
     0
102
RTVSPropertyOp53
 70
     1
102
RTVSPropertyOp54
 70
     1
102
RTVSPropertyOp55
 70
     1
102
RTVSPropertyOp56
 70
     1
102
RTVSPropertyOp57
 70
     1
102
RTVSPost2010Prop28
280
     1
102
RTVSPost2010PropOp28
 70
     1
102
RTVSPost2010Prop29
280
     1
102
RTVSPost2010PropOp29
 70
     1
102
RTVSPost2010Prop30
280
     0
102
RTVSPost2010PropOp30
 70
     1
102
RTVSPost2010Prop31
280
     0
102
RTVSPost2010PropOp31
 70
     1
102
RTVSPost2010Prop32
280
     0
102
RTVSPost2010PropOp32
 70
     1
102
RTVSPost2010Prop33
280
     0
102
RTVSPost2010PropOp33
 70
     1
102
RTVSPost2010Prop34
280
     0
102
RTVSPost2010PropOp34
 70
     1
102
RTVSPost2010Prop35
280
     0
102
RTVSPost2010PropOp35
 70
     1
102
RTVSPost2010Prop36
280
     0
102
RTVSPost2010PropOp36
 70
     1
102
RTVSPost2010Prop37
 90
       50
102
RTVSPost2010PropOp37
 70
     1
102
RTVSPost2010Prop38
140
0.0
102
RTVSPost2010PropOp38
 70
     1
102
RTVSPost2010Prop39
140
1.0
102
RTVSPost2010PropOp39
 70
     1
102
RTVSPost2010Prop40
 90
        0
102
RTVSPost2010PropOp40
 70
     1
102
RTVSPost2010Prop41ColorIndex
 90
       18
102
RTVSPost2010Prop41ColorRGB
 90
        0
102
RTVSPost2010PropOp41
 70
     1
102
RTVSPost2010Prop42
 90
       50
102
RTVSPost2010PropOp42
 70
     1
102
RTVSPost2010Prop43
 90
        3
102
RTVSPost2010PropOp43
 70
     1
102
RTVSPost2010Prop44ColorIndex
 90
        5
102
RTVSPost2010Prop44ColorRGB
 90
      255
102
RTVSPost2010PropOp44
 70
     1
102
RTVSPost2010Prop45
280
     0
102
RTVSPost2010PropOp45
 70
     1
102
RTVSPost2010Prop46
 90
       50
102
RTVSPost2010PropOp46
 70
     1
102
RTVSPost2010Prop47
 90
       50
102
RTVSPost2010PropOp47
 70
     1
102
RTVSPost2010Prop48
 90
       50
102
RTVSPost2010PropOp48
 70
     1
102
RTVSPost2010Prop49
280
     0
102
RTVSPost2010PropOp49
 70
     1
102
RTVSPost2010Prop50
 90
       50
102
RTVSPost2010PropOp50
 70
     1
102
RTVSPost2010Prop51ColorIndex
 90
      256
102
RTVSPost2010Prop51ColorRGB
 90
-16777216
102
RTVSPost2010PropOp51
 70
     0
102
RTVSPost2010Prop52
140
1.0
102
RTVSPost2010PropOp52
 70
     0
102
RTVSPost2010Prop53
 90
        2
102
RTVSPost2010PropOp53
 70
     1
102
RTVSPost2010Prop54
  1
strokes_ogs.tif
102
RTVSPost2010PropOp54
 70
     1
102
RTVSPost2010Prop55
280
     0
102
RTVSPost2010PropOp55
 70
     1
102
RTVSPost2010Prop56
140
1.0
102
RTVSPost2010PropOp56
 70
     1
102
RTVSPost2010Prop57
140
1.0
102
RTVSPost2010PropOp57
 70
     1
  0
XRECORD
  5
1B1
102
{ACAD_REACTORS
330
1B0
102
}
330
1B0
100
AcDbXrecord
280
     1
102
RTVSPropertyOp0
 70
     1
102
RTVSPropertyOp1
 70
     1
102
RTVSPropertyOp2
 70
     1
102
RTVSPropertyOp3
 70
     1
102
RTVSPropertyOp4
 70
     1
102
RTVSPropertyOp5
 70
     1
102
RTVSPropertyOp6
 70
     1
102
RTVSPropertyOp7
 70
     1
102
RTVSPropertyOp8
 70
     1
102
RTVSPropertyOp9
 70
     1
102
RTVSPropertyOp10
 70
     1
102
RTVSPropertyOp11
 70
     1
102
RTVSPropertyOp12
 70
     1
102
RTVSPropertyOp13
 70
     1
102
RTVSPropertyOp14
 70
     1
102
RTVSPropertyOp15
 70
     1
102
RTVSPropertyOp16
 70
     1
102
RTVSPropertyOp17
 70
     1
102
RTVSPropertyOp18
 70
     1
102
RTVSPropertyOp19
 70
     1
102
RTVSPropertyOp20
 70
     1
102
RTVSPropertyOp21
 70
     1
102
RTVSPropertyOp22
 70
     1
102
RTVSPropertyOp23
 70
     1
102
RTVSPropertyOp24
 70
     1
102
RTVSPropertyOp25
 70
     1
102
RTVSPropertyOp26
 70
     1
102
RTVSPropertyOp27
 70
     1
102
RTVSPropertyOp28
 70
     1
102
RTVSPropertyOp29
 70
     1
102
RTVSPropertyOp30
 70
     1
102
RTVSPropertyOp31
 70
     1
102
RTVSPropertyOp32
 70
     1
102
RTVSPropertyOp33
 70
     1
102
RTVSPropertyOp34
 70
     1
102
RTVSPropertyOp35
 70
     1
102
RTVSPropertyOp36
 70
     1
102
RTVSPropertyOp37
 70
     1
102
RTVSPropertyOp38
 70
     1
102
RTVSPropertyOp39
 70
     1
102
RTVSPropertyOp40
 70
     1
102
RTVSPropertyOp41
 70
     1
102
RTVSPropertyOp42
 70
     1
102
RTVSPropertyOp43
 70
     1
102
RTVSPropertyOp44
 70
     1
102
RTVSPropertyOp45
 70
     1
102
RTVSPropertyOp46
 70
     1
102
RTVSPropertyOp47
 70
     1
102
RTVSPropertyOp48
 70
     1
102
RTVSPropertyOp49
 70
     1
102
RTVSPropertyOp50
 70
     1
102
RTVSPropertyOp51
 70
     0
102
RTVSPropertyOp52
 70
     0
102
RTVSPropertyOp53
 70
     1
102
RTVSPropertyOp54
 70
     1
102
RTVSPropertyOp55
 70
     1
102
RTVSPropertyOp56
 70
     1
102
RTVSPropertyOp57
 70
     1
102
RTVSPost2010Prop28
280
     0
102
RTVSPost2010PropOp28
 70
     1
102
RTVSPost2010Prop29
280
     1
102
RTVSPost2010PropOp29
 70
     1
102
RTVSPost2010Prop30
280
     1
102
RTVSPost2010PropOp30
 70
     1
102
RTVSPost2010Prop31
280
     0
102
RTVSPost2010PropOp31
 70
     1
102
RTVSPost2010Prop32
280
     0
102
RTVSPost2010PropOp32
 70
     1
102
RTVSPost2010Prop33
280
     0
102
RTVSPost2010PropOp33
 70
     1
102
RTVSPost2010Prop34
280
     0
102
RTVSPost2010PropOp34
 70
     1
102
RTVSPost2010Prop35
280
     0
102
RTVSPost2010PropOp35
 70
     1
102
RTVSPost2010Prop36
280
     0
102
RTVSPost2010PropOp36
 70
     1
102
RTVSPost2010Prop37
 90
       50
102
RTVSPost2010PropOp37
 70
     1
102
RTVSPost2010Prop38
140
0.0
102
RTVSPost2010PropOp38
 70
     1
102
RTVSPost2010Prop39
140
1.0
102
RTVSPost2010PropOp39
 70
     1
102
RTVSPost2010Prop40
 90
        0
102
RTVSPost2010PropOp40
 70
     1
102
RTVSPost2010Prop41ColorIndex
 90
       18
102
RTVSPost2010Prop41ColorRGB
 90
        0
102
RTVSPost2010PropOp41
 70
     1
102
RTVSPost2010Prop42
 90
       50
102
RTVSPost2010PropOp42
 70
     1
102
RTVSPost2010Prop43
 90
        3
102
RTVSPost2010PropOp43
 70
     1
102
RTVSPost2010Prop44ColorIndex
 90
        5
102
RTVSPost2010Prop44ColorRGB
 90
      255
102
RTVSPost2010PropOp44
 70
     1
102
RTVSPost2010Prop45
280
     0
102
RTVSPost2010PropOp45
 70
     1
102
RTVSPost2010Prop46
 90
       50
102
RTVSPost2010PropOp46
 70
     1
102
RTVSPost2010Prop47
 90
       50
102
RTVSPost2010PropOp47
 70
     1
102
RTVSPost2010Prop48
 90
       50
102
RTVSPost2010PropOp48
 70
     1
102
RTVSPost2010Prop49
280
     0
102
RTVSPost2010PropOp49
 70
     1
102
RTVSPost2010Prop50
 90
       50
102
RTVSPost2010PropOp50
 70
     1
102
RTVSPost2010Prop51ColorIndex
 90
      256
102
RTVSPost2010Prop51ColorRGB
 90
-16777216
102
RTVSPost2010PropOp51
 70
     0
102
RTVSPost2010Prop52
140
1.0
102
RTVSPost2010PropOp52
 70
     0
102
RTVSPost2010Prop53
 90
        2
102
RTVSPost2010PropOp53
 70
     1
102
RTVSPost2010Prop54
  1
strokes_ogs.tif
102
RTVSPost2010PropOp54
 70
     1
102
RTVSPost2010Prop55
280
     0
102
RTVSPost2010PropOp55
 70
     1
102
RTVSPost2010Prop56
140
1.0
102
RTVSPost2010PropOp56
 70
     1
102
RTVSPost2010Prop57
140
1.0
102
RTVSPost2010PropOp57
 70
     1
  0
XRECORD
  5
1B9
102
{ACAD_REACTORS
330
1B8
102
}
330
1B8
100
AcDbXrecord
280
     1
102
RTVSPropertyOp0
 70
     1
102
RTVSPropertyOp1
 70
     1
102
RTVSPropertyOp2
 70
     1
102
RTVSPropertyOp3
 70
     1
102
RTVSPropertyOp4
 70
     1
102
RTVSPropertyOp5
 70
     1
102
RTVSPropertyOp6
 70
     1
102
RTVSPropertyOp7
 70
     1
102
RTVSPropertyOp8
 70
     1
102
RTVSPropertyOp9
 70
     1
102
RTVSPropertyOp10
 70
     1
102
RTVSPropertyOp11
 70
     1
102
RTVSPropertyOp12
 70
     1
102
RTVSPropertyOp13
 70
     1
102
RTVSPropertyOp14
 70
     1
102
RTVSPropertyOp15
 70
     1
102
RTVSPropertyOp16
 70
     1
102
RTVSPropertyOp17
 70
     1
102
RTVSPropertyOp18
 70
     1
102
RTVSPropertyOp19
 70
     1
102
RTVSPropertyOp20
 70
     1
102
RTVSPropertyOp21
 70
     1
102
RTVSPropertyOp22
 70
     1
102
RTVSPropertyOp23
 70
     1
102
RTVSPropertyOp24
 70
     1
102
RTVSPropertyOp25
 70
     1
102
RTVSPropertyOp26
 70
     1
102
RTVSPropertyOp27
 70
     1
102
RTVSPropertyOp28
 70
     1
102
RTVSPropertyOp29
 70
     1
102
RTVSPropertyOp30
 70
     1
102
RTVSPropertyOp31
 70
     1
102
RTVSPropertyOp32
 70
     1
102
RTVSPropertyOp33
 70
     1
102
RTVSPropertyOp34
 70
     1
102
RTVSPropertyOp35
 70
     1
102
RTVSPropertyOp36
 70
     1
102
RTVSPropertyOp37
 70
     1
102
RTVSPropertyOp38
 70
     1
102
RTVSPropertyOp39
 70
     1
102
RTVSPropertyOp40
 70
     1
102
RTVSPropertyOp41
 70
     1
102
RTVSPropertyOp42
 70
     1
102
RTVSPropertyOp43
 70
     1
102
RTVSPropertyOp44
 70
     1
102
RTVSPropertyOp45
 70
     1
102
RTVSPropertyOp46
 70
     1
102
RTVSPropertyOp47
 70
     1
102
RTVSPropertyOp48
 70
     1
102
RTVSPropertyOp49
 70
     1
102
RTVSPropertyOp50
 70
     1
102
RTVSPropertyOp51
 70
     0
102
RTVSPropertyOp52
 70
     0
102
RTVSPropertyOp53
 70
     1
102
RTVSPropertyOp54
 70
     1
102
RTVSPropertyOp55
 70
     1
102
RTVSPropertyOp56
 70
     1
102
RTVSPropertyOp57
 70
     1
102
RTVSPost2010Prop28
280
     0
102
RTVSPost2010PropOp28
 70
     1
102
RTVSPost2010Prop29
280
     1
102
RTVSPost2010PropOp29
 70
     1
102
RTVSPost2010Prop30
280
     1
102
RTVSPost2010PropOp30
 70
     1
102
RTVSPost2010Prop31
280
     0
102
RTVSPost2010PropOp31
 70
     1
102
RTVSPost2010Prop32
280
     0
102
RTVSPost2010PropOp32
 70
     1
102
RTVSPost2010Prop33
280
     0
102
RTVSPost2010PropOp33
 70
     1
102
RTVSPost2010Prop34
280
     0
102
RTVSPost2010PropOp34
 70
     1
102
RTVSPost2010Prop35
280
     0
102
RTVSPost2010PropOp35
 70
     1
102
RTVSPost2010Prop36
280
     0
102
RTVSPost2010PropOp36
 70
     1
102
RTVSPost2010Prop37
 90
       50
102
RTVSPost2010PropOp37
 70
     1
102
RTVSPost2010Prop38
140
0.0
102
RTVSPost2010PropOp38
 70
     1
102
RTVSPost2010Prop39
140
1.0
102
RTVSPost2010PropOp39
 70
     1
102
RTVSPost2010Prop40
 90
        0
102
RTVSPost2010PropOp40
 70
     1
102
RTVSPost2010Prop41ColorIndex
 90
       18
102
RTVSPost2010Prop41ColorRGB
 90
        0
102
RTVSPost2010PropOp41
 70
     1
102
RTVSPost2010Prop42
 90
       50
102
RTVSPost2010PropOp42
 70
     1
102
RTVSPost2010Prop43
 90
        3
102
RTVSPost2010PropOp43
 70
     1
102
RTVSPost2010Prop44ColorIndex
 90
        5
102
RTVSPost2010Prop44ColorRGB
 90
      255
102
RTVSPost2010PropOp44
 70
     1
102
RTVSPost2010Prop45
280
     0
102
RTVSPost2010PropOp45
 70
     1
102
RTVSPost2010Prop46
 90
       50
102
RTVSPost2010PropOp46
 70
     1
102
RTVSPost2010Prop47
 90
       50
102
RTVSPost2010PropOp47
 70
     1
102
RTVSPost2010Prop48
 90
       50
102
RTVSPost2010PropOp48
 70
     1
102
RTVSPost2010Prop49
280
     0
102
RTVSPost2010PropOp49
 70
     1
102
RTVSPost2010Prop50
 90
       50
102
RTVSPost2010PropOp50
 70
     1
102
RTVSPost2010Prop51ColorIndex
 90
      256
102
RTVSPost2010Prop51ColorRGB
 90
-16777216
102
RTVSPost2010PropOp51
 70
     0
102
RTVSPost2010Prop52
140
1.0
102
RTVSPost2010PropOp52
 70
     0
102
RTVSPost2010Prop53
 90
        2
102
RTVSPost2010PropOp53
 70
     1
102
RTVSPost2010Prop54
  1
strokes_ogs.tif
102
RTVSPost2010PropOp54
 70
     1
102
RTVSPost2010Prop55
280
     0
102
RTVSPost2010PropOp55
 70
     1
102
RTVSPost2010Prop56
140
1.0
102
RTVSPost2010PropOp56
 70
     1
102
RTVSPost2010Prop57
140
1.0
102
RTVSPost2010PropOp57
 70
     1
  0
XRECORD
  5
1C1
102
{ACAD_REACTORS
330
1C0
102
}
330
1C0
100
AcDbXrecord
280
     1
102
RTVSPropertyOp0
 70
     1
102
RTVSPropertyOp1
 70
     1
102
RTVSPropertyOp2
 70
     1
102
RTVSPropertyOp3
 70
     1
102
RTVSPropertyOp4
 70
     1
102
RTVSPropertyOp5
 70
     1
102
RTVSPropertyOp6
 70
     1
102
RTVSPropertyOp7
 70
     1
102
RTVSPropertyOp8
 70
     1
102
RTVSPropertyOp9
 70
     1
102
RTVSPropertyOp10
 70
     1
102
RTVSPropertyOp11
 70
     1
102
RTVSPropertyOp12
 70
     1
102
RTVSPropertyOp13
 70
     1
102
RTVSPropertyOp14
 70
     1
102
RTVSPropertyOp15
 70
     1
102
RTVSPropertyOp16
 70
     1
102
RTVSPropertyOp17
 70
     1
102
RTVSPropertyOp18
 70
     1
102
RTVSPropertyOp19
 70
     1
102
RTVSPropertyOp20
 70
     1
102
RTVSPropertyOp21
 70
     1
102
RTVSPropertyOp22
 70
     1
102
RTVSPropertyOp23
 70
     1
102
RTVSPropertyOp24
 70
     1
102
RTVSPropertyOp25
 70
     1
102
RTVSPropertyOp26
 70
     1
102
RTVSPropertyOp27
 70
     1
102
RTVSPropertyOp28
 70
     1
102
RTVSPropertyOp29
 70
     1
102
RTVSPropertyOp30
 70
     1
102
RTVSPropertyOp31
 70
     1
102
RTVSPropertyOp32
 70
     1
102
RTVSPropertyOp33
 70
     1
102
RTVSPropertyOp34
 70
     1
102
RTVSPropertyOp35
 70
     1
102
RTVSPropertyOp36
 70
     1
102
RTVSPropertyOp37
 70
     1
102
RTVSPropertyOp38
 70
     1
102
RTVSPropertyOp39
 70
     1
102
RTVSPropertyOp40
 70
     1
102
RTVSPropertyOp41
 70
     1
102
RTVSPropertyOp42
 70
     1
102
RTVSPropertyOp43
 70
     1
102
RTVSPropertyOp44
 70
     1
102
RTVSPropertyOp45
 70
     1
102
RTVSPropertyOp46
 70
     1
102
RTVSPropertyOp47
 70
     1
102
RTVSPropertyOp48
 70
     1
102
RTVSPropertyOp49
 70
     1
102
RTVSPropertyOp50
 70
     1
102
RTVSPropertyOp51
 70
     0
102
RTVSPropertyOp52
 70
     0
102
RTVSPropertyOp53
 70
     1
102
RTVSPropertyOp54
 70
     1
102
RTVSPropertyOp55
 70
     1
102
RTVSPropertyOp56
 70
     1
102
RTVSPropertyOp57
 70
     1
102
RTVSPost2010Prop28
280
     0
102
RTVSPost2010PropOp28
 70
     1
102
RTVSPost2010Prop29
280
     1
102
RTVSPost2010PropOp29
 70
     1
102
RTVSPost2010Prop30
280
     1
102
RTVSPost2010PropOp30
 70
     1
102
RTVSPost2010Prop31
280
     0
102
RTVSPost2010PropOp31
 70
     1
102
RTVSPost2010Prop32
280
     0
102
RTVSPost2010PropOp32
 70
     1
102
RTVSPost2010Prop33
280
     0
102
RTVSPost2010PropOp33
 70
     1
102
RTVSPost2010Prop34
280
     0
102
RTVSPost2010PropOp34
 70
     1
102
RTVSPost2010Prop35
280
     0
102
RTVSPost2010PropOp35
 70
     1
102
RTVSPost2010Prop36
280
     0
102
RTVSPost2010PropOp36
 70
     1
102
RTVSPost2010Prop37
 90
       50
102
RTVSPost2010PropOp37
 70
     1
102
RTVSPost2010Prop38
140
0.0
102
RTVSPost2010PropOp38
 70
     1
102
RTVSPost2010Prop39
140
1.0
102
RTVSPost2010PropOp39
 70
     1
102
RTVSPost2010Prop40
 90
        0
102
RTVSPost2010PropOp40
 70
     1
102
RTVSPost2010Prop41ColorIndex
 90
       18
102
RTVSPost2010Prop41ColorRGB
 90
        0
102
RTVSPost2010PropOp41
 70
     1
102
RTVSPost2010Prop42
 90
       50
102
RTVSPost2010PropOp42
 70
     1
102
RTVSPost2010Prop43
 90
        3
102
RTVSPost2010PropOp43
 70
     1
102
RTVSPost2010Prop44ColorIndex
 90
        5
102
RTVSPost2010Prop44ColorRGB
 90
      255
102
RTVSPost2010PropOp44
 70
     1
102
RTVSPost2010Prop45
280
     0
102
RTVSPost2010PropOp45
 70
     1
102
RTVSPost2010Prop46
 90
       50
102
RTVSPost2010PropOp46
 70
     1
102
RTVSPost2010Prop47
 90
       50
102
RTVSPost2010PropOp47
 70
     1
102
RTVSPost2010Prop48
 90
       50
102
RTVSPost2010PropOp48
 70
     1
102
RTVSPost2010Prop49
280
     0
102
RTVSPost2010PropOp49
 70
     1
102
RTVSPost2010Prop50
 90
       50
102
RTVSPost2010PropOp50
 70
     1
102
RTVSPost2010Prop51ColorIndex
 90
      256
102
RTVSPost2010Prop51ColorRGB
 90
-16777216
102
RTVSPost2010PropOp51
 70
     0
102
RTVSPost2010Prop52
140
1.0
102
RTVSPost2010PropOp52
 70
     0
102
RTVSPost2010Prop53
 90
        2
102
RTVSPost2010PropOp53
 70
     1
102
RTVSPost2010Prop54
  1
strokes_ogs.tif
102
RTVSPost2010PropOp54
 70
     1
102
RTVSPost2010Prop55
280
     0
102
RTVSPost2010PropOp55
 70
     1
102
RTVSPost2010Prop56
140
1.0
102
RTVSPost2010PropOp56
 70
     1
102
RTVSPost2010Prop57
140
1.0
102
RTVSPost2010PropOp57
 70
     1
  0
XRECORD
  5
1B5
102
{ACAD_REACTORS
330
1B4
102
}
330
1B4
100
AcDbXrecord
280
     1
102
RTVSPropertyOp0
 70
     1
102
RTVSPropertyOp1
 70
     1
102
RTVSPropertyOp2
 70
     1
102
RTVSPropertyOp3
 70
     1
102
RTVSPropertyOp4
 70
     1
102
RTVSPropertyOp5
 70
     1
102
RTVSPropertyOp6
 70
     1
102
RTVSPropertyOp7
 70
     1
102
RTVSPropertyOp8
 70
     1
102
RTVSPropertyOp9
 70
     1
102
RTVSPropertyOp10
 70
     1
102
RTVSPropertyOp11
 70
     1
102
RTVSPropertyOp12
 70
     1
102
RTVSPropertyOp13
 70
     1
102
RTVSPropertyOp14
 70
     1
102
RTVSPropertyOp15
 70
     1
102
RTVSPropertyOp16
 70
     1
102
RTVSPropertyOp17
 70
     1
102
RTVSPropertyOp18
 70
     1
102
RTVSPropertyOp19
 70
     1
102
RTVSPropertyOp20
 70
     1
102
RTVSPropertyOp21
 70
     1
102
RTVSPropertyOp22
 70
     1
102
RTVSPropertyOp23
 70
     1
102
RTVSPropertyOp24
 70
     1
102
RTVSPropertyOp25
 70
     1
102
RTVSPropertyOp26
 70
     1
102
RTVSPropertyOp27
 70
     1
102
RTVSPropertyOp28
 70
     1
102
RTVSPropertyOp29
 70
     1
102
RTVSPropertyOp30
 70
     1
102
RTVSPropertyOp31
 70
     1
102
RTVSPropertyOp32
 70
     1
102
RTVSPropertyOp33
 70
     1
102
RTVSPropertyOp34
 70
     1
102
RTVSPropertyOp35
 70
     1
102
RTVSPropertyOp36
 70
     1
102
RTVSPropertyOp37
 70
     1
102
RTVSPropertyOp38
 70
     1
102
RTVSPropertyOp39
 70
     1
102
RTVSPropertyOp40
 70
     1
102
RTVSPropertyOp41
 70
     1
102
RTVSPropertyOp42
 70
     1
102
RTVSPropertyOp43
 70
     1
102
RTVSPropertyOp44
 70
     1
102
RTVSPropertyOp45
 70
     1
102
RTVSPropertyOp46
 70
     1
102
RTVSPropertyOp47
 70
     1
102
RTVSPropertyOp48
 70
     1
102
RTVSPropertyOp49
 70
     1
102
RTVSPropertyOp50
 70
     1
102
RTVSPropertyOp51
 70
     0
102
RTVSPropertyOp52
 70
     0
102
RTVSPropertyOp53
 70
     1
102
RTVSPropertyOp54
 70
     1
102
RTVSPropertyOp55
 70
     1
102
RTVSPropertyOp56
 70
     1
102
RTVSPropertyOp57
 70
     1
102
RTVSPost2010Prop28
280
     0
102
RTVSPost2010PropOp28
 70
     1
102
RTVSPost2010Prop29
280
     1
102
RTVSPost2010PropOp29
 70
     1
102
RTVSPost2010Prop30
280
     1
102
RTVSPost2010PropOp30
 70
     1
102
RTVSPost2010Prop31
280
     0
102
RTVSPost2010PropOp31
 70
     1
102
RTVSPost2010Prop32
280
     0
102
RTVSPost2010PropOp32
 70
     1
102
RTVSPost2010Prop33
280
     0
102
RTVSPost2010PropOp33
 70
     1
102
RTVSPost2010Prop34
280
     0
102
RTVSPost2010PropOp34
 70
     1
102
RTVSPost2010Prop35
280
     0
102
RTVSPost2010PropOp35
 70
     1
102
RTVSPost2010Prop36
280
     0
102
RTVSPost2010PropOp36
 70
     1
102
RTVSPost2010Prop37
 90
       50
102
RTVSPost2010PropOp37
 70
     1
102
RTVSPost2010Prop38
140
0.0
102
RTVSPost2010PropOp38
 70
     1
102
RTVSPost2010Prop39
140
1.0
102
RTVSPost2010PropOp39
 70
     1
102
RTVSPost2010Prop40
 90
        0
102
RTVSPost2010PropOp40
 70
     1
102
RTVSPost2010Prop41ColorIndex
 90
       18
102
RTVSPost2010Prop41ColorRGB
 90
        0
102
RTVSPost2010PropOp41
 70
     1
102
RTVSPost2010Prop42
 90
       50
102
RTVSPost2010PropOp42
 70
     1
102
RTVSPost2010Prop43
 90
        3
102
RTVSPost2010PropOp43
 70
     1
102
RTVSPost2010Prop44ColorIndex
 90
        5
102
RTVSPost2010Prop44ColorRGB
 90
      255
102
RTVSPost2010PropOp44
 70
     1
102
RTVSPost2010Prop45
280
     0
102
RTVSPost2010PropOp45
 70
     1
102
RTVSPost2010Prop46
 90
       50
102
RTVSPost2010PropOp46
 70
     1
102
RTVSPost2010Prop47
 90
       50
102
RTVSPost2010PropOp47
 70
     1
102
RTVSPost2010Prop48
 90
       50
102
RTVSPost2010PropOp48
 70
     1
102
RTVSPost2010Prop49
280
     0
102
RTVSPost2010PropOp49
 70
     1
102
RTVSPost2010Prop50
 90
       50
102
RTVSPost2010PropOp50
 70
     1
102
RTVSPost2010Prop51ColorIndex
 90
      256
102
RTVSPost2010Prop51ColorRGB
 90
-16777216
102
RTVSPost2010PropOp51
 70
     0
102
RTVSPost2010Prop52
140
1.0
102
RTVSPost2010PropOp52
 70
     0
102
RTVSPost2010Prop53
 90
        2
102
RTVSPost2010PropOp53
 70
     1
102
RTVSPost2010Prop54
  1
strokes_ogs.tif
102
RTVSPost2010PropOp54
 70
     1
102
RTVSPost2010Prop55
280
     0
102
RTVSPost2010PropOp55
 70
     1
102
RTVSPost2010Prop56
140
1.0
102
RTVSPost2010PropOp56
 70
     1
102
RTVSPost2010Prop57
140
1.0
102
RTVSPost2010PropOp57
 70
     1
  0
XRECORD
  5
1B7
102
{ACAD_REACTORS
330
1B6
102
}
330
1B6
100
AcDbXrecord
280
     1
102
RTVSPropertyOp0
 70
     1
102
RTVSPropertyOp1
 70
     1
102
RTVSPropertyOp2
 70
     1
102
RTVSPropertyOp3
 70
     1
102
RTVSPropertyOp4
 70
     1
102
RTVSPropertyOp5
 70
     1
102
RTVSPropertyOp6
 70
     1
102
RTVSPropertyOp7
 70
     1
102
RTVSPropertyOp8
 70
     1
102
RTVSPropertyOp9
 70
     1
102
RTVSPropertyOp10
 70
     1
102
RTVSPropertyOp11
 70
     1
102
RTVSPropertyOp12
 70
     1
102
RTVSPropertyOp13
 70
     1
102
RTVSPropertyOp14
 70
     1
102
RTVSPropertyOp15
 70
     1
102
RTVSPropertyOp16
 70
     1
102
RTVSPropertyOp17
 70
     1
102
RTVSPropertyOp18
 70
     1
102
RTVSPropertyOp19
 70
     1
102
RTVSPropertyOp20
 70
     1
102
RTVSPropertyOp21
 70
     1
102
RTVSPropertyOp22
 70
     1
102
RTVSPropertyOp23
 70
     1
102
RTVSPropertyOp24
 70
     1
102
RTVSPropertyOp25
 70
     1
102
RTVSPropertyOp26
 70
     1
102
RTVSPropertyOp27
 70
     1
102
RTVSPropertyOp28
 70
     1
102
RTVSPropertyOp29
 70
     1
102
RTVSPropertyOp30
 70
     1
102
RTVSPropertyOp31
 70
     1
102
RTVSPropertyOp32
 70
     1
102
RTVSPropertyOp33
 70
     1
102
RTVSPropertyOp34
 70
     1
102
RTVSPropertyOp35
 70
     1
102
RTVSPropertyOp36
 70
     1
102
RTVSPropertyOp37
 70
     1
102
RTVSPropertyOp38
 70
     1
102
RTVSPropertyOp39
 70
     1
102
RTVSPropertyOp40
 70
     1
102
RTVSPropertyOp41
 70
     1
102
RTVSPropertyOp42
 70
     1
102
RTVSPropertyOp43
 70
     1
102
RTVSPropertyOp44
 70
     1
102
RTVSPropertyOp45
 70
     1
102
RTVSPropertyOp46
 70
     1
102
RTVSPropertyOp47
 70
     1
102
RTVSPropertyOp48
 70
     1
102
RTVSPropertyOp49
 70
     1
102
RTVSPropertyOp50
 70
     1
102
RTVSPropertyOp51
 70
     0
102
RTVSPropertyOp52
 70
     0
102
RTVSPropertyOp53
 70
     1
102
RTVSPropertyOp54
 70
     1
102
RTVSPropertyOp55
 70
     1
102
RTVSPropertyOp56
 70
     1
102
RTVSPropertyOp57
 70
     1
102
RTVSPost2010Prop28
280
     0
102
RTVSPost2010PropOp28
 70
     1
102
RTVSPost2010Prop29
280
     1
102
RTVSPost2010PropOp29
 70
     1
102
RTVSPost2010Prop30
280
     1
102
RTVSPost2010PropOp30
 70
     1
102
RTVSPost2010Prop31
280
     0
102
RTVSPost2010PropOp31
 70
     1
102
RTVSPost2010Prop32
280
     0
102
RTVSPost2010PropOp32
 70
     1
102
RTVSPost2010Prop33
280
     0
102
RTVSPost2010PropOp33
 70
     1
102
RTVSPost2010Prop34
280
     0
102
RTVSPost2010PropOp34
 70
     1
102
RTVSPost2010Prop35
280
     0
102
RTVSPost2010PropOp35
 70
     1
102
RTVSPost2010Prop36
280
     0
102
RTVSPost2010PropOp36
 70
     1
102
RTVSPost2010Prop37
 90
       50
102
RTVSPost2010PropOp37
 70
     1
102
RTVSPost2010Prop38
140
0.0
102
RTVSPost2010PropOp38
 70
     1
102
RTVSPost2010Prop39
140
1.0
102
RTVSPost2010PropOp39
 70
     1
102
RTVSPost2010Prop40
 90
        0
102
RTVSPost2010PropOp40
 70
     1
102
RTVSPost2010Prop41ColorIndex
 90
       18
102
RTVSPost2010Prop41ColorRGB
 90
        0
102
RTVSPost2010PropOp41
 70
     1
102
RTVSPost2010Prop42
 90
       50
102
RTVSPost2010PropOp42
 70
     1
102
RTVSPost2010Prop43
 90
        3
102
RTVSPost2010PropOp43
 70
     1
102
RTVSPost2010Prop44ColorIndex
 90
        5
102
RTVSPost2010Prop44ColorRGB
 90
      255
102
RTVSPost2010PropOp44
 70
     1
102
RTVSPost2010Prop45
280
     0
102
RTVSPost2010PropOp45
 70
     1
102
RTVSPost2010Prop46
 90
       50
102
RTVSPost2010PropOp46
 70
     1
102
RTVSPost2010Prop47
 90
       50
102
RTVSPost2010PropOp47
 70
     1
102
RTVSPost2010Prop48
 90
       50
102
RTVSPost2010PropOp48
 70
     1
102
RTVSPost2010Prop49
280
     0
102
RTVSPost2010PropOp49
 70
     1
102
RTVSPost2010Prop50
 90
       50
102
RTVSPost2010PropOp50
 70
     1
102
RTVSPost2010Prop51ColorIndex
 90
      256
102
RTVSPost2010Prop51ColorRGB
 90
-16777216
102
RTVSPost2010PropOp51
 70
     0
102
RTVSPost2010Prop52
140
1.0
102
RTVSPost2010PropOp52
 70
     0
102
RTVSPost2010Prop53
 90
        2
102
RTVSPost2010PropOp53
 70
     1
102
RTVSPost2010Prop54
  1
strokes_ogs.tif
102
RTVSPost2010PropOp54
 70
     1
102
RTVSPost2010Prop55
280
     0
102
RTVSPost2010PropOp55
 70
     1
102
RTVSPost2010Prop56
140
1.0
102
RTVSPost2010PropOp56
 70
     1
102
RTVSPost2010Prop57
140
1.0
102
RTVSPost2010PropOp57
 70
     1
  0
XRECORD
  5
1C7
102
{ACAD_REACTORS
330
1C6
102
}
330
1C6
100
AcDbXrecord
280
     1
102
RTVSPropertyOp0
 70
     0
102
RTVSPropertyOp1
 70
     0
102
RTVSPropertyOp2
 70
     0
102
RTVSPropertyOp3
 70
     0
102
RTVSPropertyOp4
 70
     0
102
RTVSPropertyOp5
 70
     0
102
RTVSPropertyOp6
 70
     0
102
RTVSPropertyOp7
 70
     0
102
RTVSPropertyOp8
 70
     0
102
RTVSPropertyOp9
 70
     0
102
RTVSPropertyOp10
 70
     0
102
RTVSPropertyOp11
 70
     0
102
RTVSPropertyOp12
 70
     0
102
RTVSPropertyOp13
 70
     0
102
RTVSPropertyOp14
 70
     2
102
RTVSPropertyOp15
 70
     0
102
RTVSPropertyOp16
 70
     0
102
RTVSPropertyOp17
 70
     0
102
RTVSPropertyOp18
 70
     0
102
RTVSPropertyOp19
 70
     0
102
RTVSPropertyOp20
 70
     0
102
RTVSPropertyOp21
 70
     0
102
RTVSPropertyOp22
 70
     0
102
RTVSPropertyOp23
 70
     0
102
RTVSPropertyOp24
 70
     0
102
RTVSPropertyOp25
 70
     0
102
RTVSPropertyOp26
 70
     0
102
RTVSPropertyOp27
 70
     0
102
RTVSPropertyOp28
 70
     0
102
RTVSPropertyOp29
 70
     0
102
RTVSPropertyOp30
 70
     0
102
RTVSPropertyOp31
 70
     0
102
RTVSPropertyOp32
 70
     0
102
RTVSPropertyOp33
 70
     0
102
RTVSPropertyOp34
 70
     0
102
RTVSPropertyOp35
 70
     0
102
RTVSPropertyOp36
 70
     0
102
RTVSPropertyOp37
 70
     0
102
RTVSPropertyOp38
 70
     0
102
RTVSPropertyOp39
 70
     0
102
RTVSPropertyOp40
 70
     0
102
RTVSPropertyOp41
 70
     0
102
RTVSPropertyOp42
 70
     0
102
RTVSPropertyOp43
 70
     0
102
RTVSPropertyOp44
 70
     0
102
RTVSPropertyOp45
 70
     0
102
RTVSPropertyOp46
 70
     0
102
RTVSPropertyOp47
 70
     0
102
RTVSPropertyOp48
 70
     0
102
RTVSPropertyOp49
 70
     0
102
RTVSPropertyOp50
 70
     0
102
RTVSPropertyOp51
 70
     0
102
RTVSPropertyOp52
 70
     0
102
RTVSPropertyOp53
 70
     0
102
RTVSPropertyOp54
 70
     0
102
RTVSPropertyOp55
 70
     0
102
RTVSPropertyOp56
 70
     0
102
RTVSPropertyOp57
 70
     0
102
RTVSPost2010Prop28
280
     0
102
RTVSPost2010PropOp28
 70
     0
102
RTVSPost2010Prop29
280
     1
102
RTVSPost2010PropOp29
 70
     0
102
RTVSPost2010Prop30
280
     1
102
RTVSPost2010PropOp30
 70
     0
102
RTVSPost2010Prop31
280
     0
102
RTVSPost2010PropOp31
 70
     0
102
RTVSPost2010Prop32
280
     0
102
RTVSPost2010PropOp32
 70
     0
102
RTVSPost2010Prop33
280
     0
102
RTVSPost2010PropOp33
 70
     0
102
RTVSPost2010Prop34
280
     0
102
RTVSPost2010PropOp34
 70
     0
102
RTVSPost2010Prop35
280
     0
102
RTVSPost2010PropOp35
 70
     0
102
RTVSPost2010Prop36
280
     0
102
RTVSPost2010PropOp36
 70
     0
102
RTVSPost2010Prop37
 90
       50
102
RTVSPost2010PropOp37
 70
     0
102
RTVSPost2010Prop38
140
0.0
102
RTVSPost2010PropOp38
 70
     0
102
RTVSPost2010Prop39
140
1.0
102
RTVSPost2010PropOp39
 70
     0
102
RTVSPost2010Prop40
 90
        0
102
RTVSPost2010PropOp40
 70
     0
102
RTVSPost2010Prop41ColorIndex
 90
       18
102
RTVSPost2010Prop41ColorRGB
 90
        0
102
RTVSPost2010PropOp41
 70
     0
102
RTVSPost2010Prop42
 90
       50
102
RTVSPost2010PropOp42
 70
     0
102
RTVSPost2010Prop43
 90
        3
102
RTVSPost2010PropOp43
 70
     0
102
RTVSPost2010Prop44ColorIndex
 90
        5
102
RTVSPost2010Prop44ColorRGB
 90
      255
102
RTVSPost2010PropOp44
 70
     0
102
RTVSPost2010Prop45
280
     0
102
RTVSPost2010PropOp45
 70
     0
102
RTVSPost2010Prop46
 90
       50
102
RTVSPost2010PropOp46
 70
     0
102
RTVSPost2010Prop47
 90
       50
102
RTVSPost2010PropOp47
 70
     0
102
RTVSPost2010Prop48
 90
       50
102
RTVSPost2010PropOp48
 70
     0
102
RTVSPost2010Prop49
280
     0
102
RTVSPost2010PropOp49
 70
     0
102
RTVSPost2010Prop50
 90
       50
102
RTVSPost2010PropOp50
 70
     0
102
RTVSPost2010Prop51ColorIndex
 90
      256
102
RTVSPost2010Prop51ColorRGB
 90
-16777216
102
RTVSPost2010PropOp51
 70
     0
102
RTVSPost2010Prop52
140
1.0
102
RTVSPost2010PropOp52
 70
     0
102
RTVSPost2010Prop53
 90
        2
102
RTVSPost2010PropOp53
 70
     0
102
RTVSPost2010Prop54
  1
strokes_ogs.tif
102
RTVSPost2010PropOp54
 70
     0
102
RTVSPost2010Prop55
280
     0
102
RTVSPost2010PropOp55
 70
     0
102
RTVSPost2010Prop56
140
1.0
102
RTVSPost2010PropOp56
 70
     0
102
RTVSPost2010Prop57
140
1.0
102
RTVSPost2010PropOp57
 70
     0
  0
XRECORD
  5
1BF
102
{ACAD_REACTORS
330
1BE
102
}
330
1BE
100
AcDbXrecord
280
     1
102
RTVSPropertyOp0
 70
     1
102
RTVSPropertyOp1
 70
     1
102
RTVSPropertyOp2
 70
     1
102
RTVSPropertyOp3
 70
     1
102
RTVSPropertyOp4
 70
     1
102
RTVSPropertyOp5
 70
     1
102
RTVSPropertyOp6
 70
     1
102
RTVSPropertyOp7
 70
     1
102
RTVSPropertyOp8
 70
     1
102
RTVSPropertyOp9
 70
     1
102
RTVSPropertyOp10
 70
     1
102
RTVSPropertyOp11
 70
     1
102
RTVSPropertyOp12
 70
     1
102
RTVSPropertyOp13
 70
     1
102
RTVSPropertyOp14
 70
     1
102
RTVSPropertyOp15
 70
     1
102
RTVSPropertyOp16
 70
     1
102
RTVSPropertyOp17
 70
     1
102
RTVSPropertyOp18
 70
     1
102
RTVSPropertyOp19
 70
     1
102
RTVSPropertyOp20
 70
     1
102
RTVSPropertyOp21
 70
     1
102
RTVSPropertyOp22
 70
     1
102
RTVSPropertyOp23
 70
     1
102
RTVSPropertyOp24
 70
     1
102
RTVSPropertyOp25
 70
     1
102
RTVSPropertyOp26
 70
     1
102
RTVSPropertyOp27
 70
     1
102
RTVSPropertyOp28
 70
     1
102
RTVSPropertyOp29
 70
     1
102
RTVSPropertyOp30
 70
     1
102
RTVSPropertyOp31
 70
     1
102
RTVSPropertyOp32
 70
     1
102
RTVSPropertyOp33
 70
     1
102
RTVSPropertyOp34
 70
     1
102
RTVSPropertyOp35
 70
     1
102
RTVSPropertyOp36
 70
     1
102
RTVSPropertyOp37
 70
     1
102
RTVSPropertyOp38
 70
     1
102
RTVSPropertyOp39
 70
     1
102
RTVSPropertyOp40
 70
     1
102
RTVSPropertyOp41
 70
     1
102
RTVSPropertyOp42
 70
     1
102
RTVSPropertyOp43
 70
     1
102
RTVSPropertyOp44
 70
     1
102
RTVSPropertyOp45
 70
     1
102
RTVSPropertyOp46
 70
     1
102
RTVSPropertyOp47
 70
     1
102
RTVSPropertyOp48
 70
     1
102
RTVSPropertyOp49
 70
     1
102
RTVSPropertyOp50
 70
     1
102
RTVSPropertyOp51
 70
     0
102
RTVSPropertyOp52
 70
     0
102
RTVSPropertyOp53
 70
     1
102
RTVSPropertyOp54
 70
     1
102
RTVSPropertyOp55
 70
     1
102
RTVSPropertyOp56
 70
     1
102
RTVSPropertyOp57
 70
     1
102
RTVSPost2010Prop28
280
     0
102
RTVSPost2010PropOp28
 70
     1
102
RTVSPost2010Prop29
280
     1
102
RTVSPost2010PropOp29
 70
     1
102
RTVSPost2010Prop30
280
     1
102
RTVSPost2010PropOp30
 70
     1
102
RTVSPost2010Prop31
280
     0
102
RTVSPost2010PropOp31
 70
     1
102
RTVSPost2010Prop32
280
     0
102
RTVSPost2010PropOp32
 70
     1
102
RTVSPost2010Prop33
280
     0
102
RTVSPost2010PropOp33
 70
     1
102
RTVSPost2010Prop34
280
     0
102
RTVSPost2010PropOp34
 70
     1
102
RTVSPost2010Prop35
280
     0
102
RTVSPost2010PropOp35
 70
     1
102
RTVSPost2010Prop36
280
     0
102
RTVSPost2010PropOp36
 70
     1
102
RTVSPost2010Prop37
 90
       50
102
RTVSPost2010PropOp37
 70
     1
102
RTVSPost2010Prop38
140
0.0
102
RTVSPost2010PropOp38
 70
     1
102
RTVSPost2010Prop39
140
1.0
102
RTVSPost2010PropOp39
 70
     1
102
RTVSPost2010Prop40
 90
        0
102
RTVSPost2010PropOp40
 70
     1
102
RTVSPost2010Prop41ColorIndex
 90
       18
102
RTVSPost2010Prop41ColorRGB
 90
        0
102
RTVSPost2010PropOp41
 70
     1
102
RTVSPost2010Prop42
 90
       50
102
RTVSPost2010PropOp42
 70
     1
102
RTVSPost2010Prop43
 90
        3
102
RTVSPost2010PropOp43
 70
     1
102
RTVSPost2010Prop44ColorIndex
 90
        5
102
RTVSPost2010Prop44ColorRGB
 90
      255
102
RTVSPost2010PropOp44
 70
     1
102
RTVSPost2010Prop45
280
     0
102
RTVSPost2010PropOp45
 70
     1
102
RTVSPost2010Prop46
 90
       50
102
RTVSPost2010PropOp46
 70
     1
102
RTVSPost2010Prop47
 90
       50
102
RTVSPost2010PropOp47
 70
     1
102
RTVSPost2010Prop48
 90
       50
102
RTVSPost2010PropOp48
 70
     1
102
RTVSPost2010Prop49
280
     0
102
RTVSPost2010PropOp49
 70
     1
102
RTVSPost2010Prop50
 90
       50
102
RTVSPost2010PropOp50
 70
     1
102
RTVSPost2010Prop51ColorIndex
 90
      256
102
RTVSPost2010Prop51ColorRGB
 90
-16777216
102
RTVSPost2010PropOp51
 70
     0
102
RTVSPost2010Prop52
140
1.0
102
RTVSPost2010PropOp52
 70
     0
102
RTVSPost2010Prop53
 90
        2
102
RTVSPost2010PropOp53
 70
     1
102
RTVSPost2010Prop54
  1
strokes_ogs.tif
102
RTVSPost2010PropOp54
 70
     1
102
RTVSPost2010Prop55
280
     0
102
RTVSPost2010PropOp55
 70
     1
102
RTVSPost2010Prop56
140
1.0
102
RTVSPost2010PropOp56
 70
     1
102
RTVSPost2010Prop57
140
1.0
102
RTVSPost2010PropOp57
 70
     1
  0
XRECORD
  5
1A3
102
{ACAD_REACTORS
330
1A2
102
}
330
1A2
100
AcDbXrecord
280
     1
102
RTVSPropertyOp0
 70
     1
102
RTVSPropertyOp1
 70
     1
102
RTVSPropertyOp2
 70
     1
102
RTVSPropertyOp3
 70
     1
102
RTVSPropertyOp4
 70
     1
102
RTVSPropertyOp5
 70
     1
102
RTVSPropertyOp6
 70
     1
102
RTVSPropertyOp7
 70
     1
102
RTVSPropertyOp8
 70
     1
102
RTVSPropertyOp9
 70
     1
102
RTVSPropertyOp10
 70
     1
102
RTVSPropertyOp11
 70
     1
102
RTVSPropertyOp12
 70
     1
102
RTVSPropertyOp13
 70
     1
102
RTVSPropertyOp14
 70
     1
102
RTVSPropertyOp15
 70
     1
102
RTVSPropertyOp16
 70
     1
102
RTVSPropertyOp17
 70
     1
102
RTVSPropertyOp18
 70
     1
102
RTVSPropertyOp19
 70
     1
102
RTVSPropertyOp20
 70
     1
102
RTVSPropertyOp21
 70
     1
102
RTVSPropertyOp22
 70
     1
102
RTVSPropertyOp23
 70
     1
102
RTVSPropertyOp24
 70
     1
102
RTVSPropertyOp25
 70
     1
102
RTVSPropertyOp26
 70
     1
102
RTVSPropertyOp27
 70
     1
102
RTVSPropertyOp28
 70
     1
102
RTVSPropertyOp29
 70
     1
102
RTVSPropertyOp30
 70
     1
102
RTVSPropertyOp31
 70
     1
102
RTVSPropertyOp32
 70
     1
102
RTVSPropertyOp33
 70
     1
102
RTVSPropertyOp34
 70
     1
102
RTVSPropertyOp35
 70
     1
102
RTVSPropertyOp36
 70
     1
102
RTVSPropertyOp37
 70
     1
102
RTVSPropertyOp38
 70
     1
102
RTVSPropertyOp39
 70
     1
102
RTVSPropertyOp40
 70
     1
102
RTVSPropertyOp41
 70
     1
102
RTVSPropertyOp42
 70
     1
102
RTVSPropertyOp43
 70
     1
102
RTVSPropertyOp44
 70
     1
102
RTVSPropertyOp45
 70
     1
102
RTVSPropertyOp46
 70
     1
102
RTVSPropertyOp47
 70
     1
102
RTVSPropertyOp48
 70
     1
102
RTVSPropertyOp49
 70
     1
102
RTVSPropertyOp50
 70
     1
102
RTVSPropertyOp51
 70
     0
102
RTVSPropertyOp52
 70
     0
102
RTVSPropertyOp53
 70
     1
102
RTVSPropertyOp54
 70
     1
102
RTVSPropertyOp55
 70
     1
102
RTVSPropertyOp56
 70
     1
102
RTVSPropertyOp57
 70
     1
102
RTVSPost2010Prop28
280
     0
102
RTVSPost2010PropOp28
 70
     1
102
RTVSPost2010Prop29
280
     1
102
RTVSPost2010PropOp29
 70
     1
102
RTVSPost2010Prop30
280
     1
102
RTVSPost2010PropOp30
 70
     1
102
RTVSPost2010Prop31
280
     0
102
RTVSPost2010PropOp31
 70
     1
102
RTVSPost2010Prop32
280
     0
102
RTVSPost2010PropOp32
 70
     1
102
RTVSPost2010Prop33
280
     0
102
RTVSPost2010PropOp33
 70
     1
102
RTVSPost2010Prop34
280
     0
102
RTVSPost2010PropOp34
 70
     1
102
RTVSPost2010Prop35
280
     0
102
RTVSPost2010PropOp35
 70
     1
102
RTVSPost2010Prop36
280
     0
102
RTVSPost2010PropOp36
 70
     1
102
RTVSPost2010Prop37
 90
       50
102
RTVSPost2010PropOp37
 70
     1
102
RTVSPost2010Prop38
140
0.0
102
RTVSPost2010PropOp38
 70
     1
102
RTVSPost2010Prop39
140
1.0
102
RTVSPost2010PropOp39
 70
     1
102
RTVSPost2010Prop40
 90
        0
102
RTVSPost2010PropOp40
 70
     1
102
RTVSPost2010Prop41ColorIndex
 90
       18
102
RTVSPost2010Prop41ColorRGB
 90
        0
102
RTVSPost2010PropOp41
 70
     1
102
RTVSPost2010Prop42
 90
       50
102
RTVSPost2010PropOp42
 70
     1
102
RTVSPost2010Prop43
 90
        3
102
RTVSPost2010PropOp43
 70
     1
102
RTVSPost2010Prop44ColorIndex
 90
        5
102
RTVSPost2010Prop44ColorRGB
 90
      255
102
RTVSPost2010PropOp44
 70
     1
102
RTVSPost2010Prop45
280
     0
102
RTVSPost2010PropOp45
 70
     1
102
RTVSPost2010Prop46
 90
       50
102
RTVSPost2010PropOp46
 70
     1
102
RTVSPost2010Prop47
 90
       50
102
RTVSPost2010PropOp47
 70
     1
102
RTVSPost2010Prop48
 90
       50
102
RTVSPost2010PropOp48
 70
     1
102
RTVSPost2010Prop49
280
     0
102
RTVSPost2010PropOp49
 70
     1
102
RTVSPost2010Prop50
 90
       50
102
RTVSPost2010PropOp50
 70
     1
102
RTVSPost2010Prop51ColorIndex
 90
      256
102
RTVSPost2010Prop51ColorRGB
 90
-16777216
102
RTVSPost2010PropOp51
 70
     0
102
RTVSPost2010Prop52
140
1.0
102
RTVSPost2010PropOp52
 70
     0
102
RTVSPost2010Prop53
 90
        2
102
RTVSPost2010PropOp53
 70
     1
102
RTVSPost2010Prop54
  1
strokes_ogs.tif
102
RTVSPost2010PropOp54
 70
     1
102
RTVSPost2010Prop55
280
     0
102
RTVSPost2010PropOp55
 70
     1
102
RTVSPost2010Prop56
140
1.0
102
RTVSPost2010PropOp56
 70
     1
102
RTVSPost2010Prop57
140
1.0
102
RTVSPost2010PropOp57
 70
     1
  0
XRECORD
  5
1A5
102
{ACAD_REACTORS
330
1A4
102
}
330
1A4
100
AcDbXrecord
280
     1
102
RTVSPropertyOp0
 70
     1
102
RTVSPropertyOp1
 70
     1
102
RTVSPropertyOp2
 70
     1
102
RTVSPropertyOp3
 70
     1
102
RTVSPropertyOp4
 70
     1
102
RTVSPropertyOp5
 70
     1
102
RTVSPropertyOp6
 70
     1
102
RTVSPropertyOp7
 70
     1
102
RTVSPropertyOp8
 70
     1
102
RTVSPropertyOp9
 70
     1
102
RTVSPropertyOp10
 70
     1
102
RTVSPropertyOp11
 70
     1
102
RTVSPropertyOp12
 70
     1
102
RTVSPropertyOp13
 70
     1
102
RTVSPropertyOp14
 70
     1
102
RTVSPropertyOp15
 70
     1
102
RTVSPropertyOp16
 70
     1
102
RTVSPropertyOp17
 70
     1
102
RTVSPropertyOp18
 70
     1
102
RTVSPropertyOp19
 70
     1
102
RTVSPropertyOp20
 70
     1
102
RTVSPropertyOp21
 70
     1
102
RTVSPropertyOp22
 70
     1
102
RTVSPropertyOp23
 70
     1
102
RTVSPropertyOp24
 70
     1
102
RTVSPropertyOp25
 70
     1
102
RTVSPropertyOp26
 70
     1
102
RTVSPropertyOp27
 70
     1
102
RTVSPropertyOp28
 70
     1
102
RTVSPropertyOp29
 70
     1
102
RTVSPropertyOp30
 70
     1
102
RTVSPropertyOp31
 70
     1
102
RTVSPropertyOp32
 70
     1
102
RTVSPropertyOp33
 70
     1
102
RTVSPropertyOp34
 70
     1
102
RTVSPropertyOp35
 70
     1
102
RTVSPropertyOp36
 70
     1
102
RTVSPropertyOp37
 70
     1
102
RTVSPropertyOp38
 70
     1
102
RTVSPropertyOp39
 70
     1
102
RTVSPropertyOp40
 70
     1
102
RTVSPropertyOp41
 70
     1
102
RTVSPropertyOp42
 70
     1
102
RTVSPropertyOp43
 70
     1
102
RTVSPropertyOp44
 70
     1
102
RTVSPropertyOp45
 70
     1
102
RTVSPropertyOp46
 70
     1
102
RTVSPropertyOp47
 70
     1
102
RTVSPropertyOp48
 70
     1
102
RTVSPropertyOp49
 70
     1
102
RTVSPropertyOp50
 70
     1
102
RTVSPropertyOp51
 70
     0
102
RTVSPropertyOp52
 70
     0
102
RTVSPropertyOp53
 70
     1
102
RTVSPropertyOp54
 70
     1
102
RTVSPropertyOp55
 70
     1
102
RTVSPropertyOp56
 70
     1
102
RTVSPropertyOp57
 70
     1
102
RTVSPost2010Prop28
280
     0
102
RTVSPost2010PropOp28
 70
     1
102
RTVSPost2010Prop29
280
     1
102
RTVSPost2010PropOp29
 70
     1
102
RTVSPost2010Prop30
280
     1
102
RTVSPost2010PropOp30
 70
     1
102
RTVSPost2010Prop31
280
     0
102
RTVSPost2010PropOp31
 70
     1
102
RTVSPost2010Prop32
280
     0
102
RTVSPost2010PropOp32
 70
     1
102
RTVSPost2010Prop33
280
     0
102
RTVSPost2010PropOp33
 70
     1
102
RTVSPost2010Prop34
280
     0
102
RTVSPost2010PropOp34
 70
     1
102
RTVSPost2010Prop35
280
     0
102
RTVSPost2010PropOp35
 70
     1
102
RTVSPost2010Prop36
280
     0
102
RTVSPost2010PropOp36
 70
     1
102
RTVSPost2010Prop37
 90
       50
102
RTVSPost2010PropOp37
 70
     1
102
RTVSPost2010Prop38
140
0.0
102
RTVSPost2010PropOp38
 70
     1
102
RTVSPost2010Prop39
140
1.0
102
RTVSPost2010PropOp39
 70
     1
102
RTVSPost2010Prop40
 90
        0
102
RTVSPost2010PropOp40
 70
     1
102
RTVSPost2010Prop41ColorIndex
 90
       18
102
RTVSPost2010Prop41ColorRGB
 90
        0
102
RTVSPost2010PropOp41
 70
     1
102
RTVSPost2010Prop42
 90
       50
102
RTVSPost2010PropOp42
 70
     1
102
RTVSPost2010Prop43
 90
        3
102
RTVSPost2010PropOp43
 70
     1
102
RTVSPost2010Prop44ColorIndex
 90
        5
102
RTVSPost2010Prop44ColorRGB
 90
      255
102
RTVSPost2010PropOp44
 70
     1
102
RTVSPost2010Prop45
280
     0
102
RTVSPost2010PropOp45
 70
     1
102
RTVSPost2010Prop46
 90
       50
102
RTVSPost2010PropOp46
 70
     1
102
RTVSPost2010Prop47
 90
       50
102
RTVSPost2010PropOp47
 70
     1
102
RTVSPost2010Prop48
 90
       50
102
RTVSPost2010PropOp48
 70
     1
102
RTVSPost2010Prop49
280
     0
102
RTVSPost2010PropOp49
 70
     1
102
RTVSPost2010Prop50
 90
       50
102
RTVSPost2010PropOp50
 70
     1
102
RTVSPost2010Prop51ColorIndex
 90
      256
102
RTVSPost2010Prop51ColorRGB
 90
-16777216
102
RTVSPost2010PropOp51
 70
     0
102
RTVSPost2010Prop52
140
1.0
102
RTVSPost2010PropOp52
 70
     0
102
RTVSPost2010Prop53
 90
        2
102
RTVSPost2010PropOp53
 70
     1
102
RTVSPost2010Prop54
  1
strokes_ogs.tif
102
RTVSPost2010PropOp54
 70
     1
102
RTVSPost2010Prop55
280
     0
102
RTVSPost2010PropOp55
 70
     1
102
RTVSPost2010Prop56
140
1.0
102
RTVSPost2010PropOp56
 70
     1
102
RTVSPost2010Prop57
140
1.0
102
RTVSPost2010PropOp57
 70
     1
  0
XRECORD
  5
1A7
102
{ACAD_REACTORS
330
1A6
102
}
330
1A6
100
AcDbXrecord
280
     1
102
RTVSPropertyOp0
 70
     1
102
RTVSPropertyOp1
 70
     1
102
RTVSPropertyOp2
 70
     1
102
RTVSPropertyOp3
 70
     1
102
RTVSPropertyOp4
 70
     1
102
RTVSPropertyOp5
 70
     1
102
RTVSPropertyOp6
 70
     1
102
RTVSPropertyOp7
 70
     1
102
RTVSPropertyOp8
 70
     1
102
RTVSPropertyOp9
 70
     1
102
RTVSPropertyOp10
 70
     1
102
RTVSPropertyOp11
 70
     1
102
RTVSPropertyOp12
 70
     1
102
RTVSPropertyOp13
 70
     1
102
RTVSPropertyOp14
 70
     1
102
RTVSPropertyOp15
 70
     1
102
RTVSPropertyOp16
 70
     1
102
RTVSPropertyOp17
 70
     1
102
RTVSPropertyOp18
 70
     1
102
RTVSPropertyOp19
 70
     1
102
RTVSPropertyOp20
 70
     1
102
RTVSPropertyOp21
 70
     1
102
RTVSPropertyOp22
 70
     1
102
RTVSPropertyOp23
 70
     1
102
RTVSPropertyOp24
 70
     1
102
RTVSPropertyOp25
 70
     1
102
RTVSPropertyOp26
 70
     1
102
RTVSPropertyOp27
 70
     1
102
RTVSPropertyOp28
 70
     1
102
RTVSPropertyOp29
 70
     1
102
RTVSPropertyOp30
 70
     1
102
RTVSPropertyOp31
 70
     1
102
RTVSPropertyOp32
 70
     1
102
RTVSPropertyOp33
 70
     1
102
RTVSPropertyOp34
 70
     1
102
RTVSPropertyOp35
 70
     1
102
RTVSPropertyOp36
 70
     1
102
RTVSPropertyOp37
 70
     1
102
RTVSPropertyOp38
 70
     1
102
RTVSPropertyOp39
 70
     1
102
RTVSPropertyOp40
 70
     1
102
RTVSPropertyOp41
 70
     1
102
RTVSPropertyOp42
 70
     1
102
RTVSPropertyOp43
 70
     1
102
RTVSPropertyOp44
 70
     1
102
RTVSPropertyOp45
 70
     1
102
RTVSPropertyOp46
 70
     1
102
RTVSPropertyOp47
 70
     1
102
RTVSPropertyOp48
 70
     1
102
RTVSPropertyOp49
 70
     1
102
RTVSPropertyOp50
 70
     1
102
RTVSPropertyOp51
 70
     0
102
RTVSPropertyOp52
 70
     0
102
RTVSPropertyOp53
 70
     1
102
RTVSPropertyOp54
 70
     1
102
RTVSPropertyOp55
 70
     1
102
RTVSPropertyOp56
 70
     1
102
RTVSPropertyOp57
 70
     1
102
RTVSPost2010Prop28
280
     0
102
RTVSPost2010PropOp28
 70
     1
102
RTVSPost2010Prop29
280
     1
102
RTVSPost2010PropOp29
 70
     1
102
RTVSPost2010Prop30
280
     1
102
RTVSPost2010PropOp30
 70
     1
102
RTVSPost2010Prop31
280
     0
102
RTVSPost2010PropOp31
 70
     1
102
RTVSPost2010Prop32
280
     0
102
RTVSPost2010PropOp32
 70
     1
102
RTVSPost2010Prop33
280
     0
102
RTVSPost2010PropOp33
 70
     1
102
RTVSPost2010Prop34
280
     0
102
RTVSPost2010PropOp34
 70
     1
102
RTVSPost2010Prop35
280
     0
102
RTVSPost2010PropOp35
 70
     1
102
RTVSPost2010Prop36
280
     0
102
RTVSPost2010PropOp36
 70
     1
102
RTVSPost2010Prop37
 90
       50
102
RTVSPost2010PropOp37
 70
     1
102
RTVSPost2010Prop38
140
0.0
102
RTVSPost2010PropOp38
 70
     1
102
RTVSPost2010Prop39
140
1.0
102
RTVSPost2010PropOp39
 70
     1
102
RTVSPost2010Prop40
 90
        0
102
RTVSPost2010PropOp40
 70
     1
102
RTVSPost2010Prop41ColorIndex
 90
       18
102
RTVSPost2010Prop41ColorRGB
 90
        0
102
RTVSPost2010PropOp41
 70
     1
102
RTVSPost2010Prop42
 90
       50
102
RTVSPost2010PropOp42
 70
     1
102
RTVSPost2010Prop43
 90
        3
102
RTVSPost2010PropOp43
 70
     1
102
RTVSPost2010Prop44ColorIndex
 90
        5
102
RTVSPost2010Prop44ColorRGB
 90
      255
102
RTVSPost2010PropOp44
 70
     1
102
RTVSPost2010Prop45
280
     0
102
RTVSPost2010PropOp45
 70
     1
102
RTVSPost2010Prop46
 90
       50
102
RTVSPost2010PropOp46
 70
     1
102
RTVSPost2010Prop47
 90
       50
102
RTVSPost2010PropOp47
 70
     1
102
RTVSPost2010Prop48
 90
       50
102
RTVSPost2010PropOp48
 70
     1
102
RTVSPost2010Prop49
280
     0
102
RTVSPost2010PropOp49
 70
     1
102
RTVSPost2010Prop50
 90
       50
102
RTVSPost2010PropOp50
 70
     1
102
RTVSPost2010Prop51ColorIndex
 90
      256
102
RTVSPost2010Prop51ColorRGB
 90
-16777216
102
RTVSPost2010PropOp51
 70
     0
102
RTVSPost2010Prop52
140
1.0
102
RTVSPost2010PropOp52
 70
     0
102
RTVSPost2010Prop53
 90
        2
102
RTVSPost2010PropOp53
 70
     1
102
RTVSPost2010Prop54
  1
strokes_ogs.tif
102
RTVSPost2010PropOp54
 70
     1
102
RTVSPost2010Prop55
280
     0
102
RTVSPost2010PropOp55
 70
     1
102
RTVSPost2010Prop56
140
1.0
102
RTVSPost2010PropOp56
 70
     1
102
RTVSPost2010Prop57
140
1.0
102
RTVSPost2010PropOp57
 70
     1
  0
XRECORD
  5
1A9
102
{ACAD_REACTORS
330
1A8
102
}
330
1A8
100
AcDbXrecord
280
     1
102
RTVSPropertyOp0
 70
     1
102
RTVSPropertyOp1
 70
     1
102
RTVSPropertyOp2
 70
     1
102
RTVSPropertyOp3
 70
     1
102
RTVSPropertyOp4
 70
     1
102
RTVSPropertyOp5
 70
     1
102
RTVSPropertyOp6
 70
     1
102
RTVSPropertyOp7
 70
     1
102
RTVSPropertyOp8
 70
     1
102
RTVSPropertyOp9
 70
     1
102
RTVSPropertyOp10
 70
     1
102
RTVSPropertyOp11
 70
     1
102
RTVSPropertyOp12
 70
     1
102
RTVSPropertyOp13
 70
     1
102
RTVSPropertyOp14
 70
     1
102
RTVSPropertyOp15
 70
     1
102
RTVSPropertyOp16
 70
     1
102
RTVSPropertyOp17
 70
     1
102
RTVSPropertyOp18
 70
     1
102
RTVSPropertyOp19
 70
     1
102
RTVSPropertyOp20
 70
     1
102
RTVSPropertyOp21
 70
     1
102
RTVSPropertyOp22
 70
     1
102
RTVSPropertyOp23
 70
     1
102
RTVSPropertyOp24
 70
     1
102
RTVSPropertyOp25
 70
     1
102
RTVSPropertyOp26
 70
     1
102
RTVSPropertyOp27
 70
     1
102
RTVSPropertyOp28
 70
     1
102
RTVSPropertyOp29
 70
     1
102
RTVSPropertyOp30
 70
     1
102
RTVSPropertyOp31
 70
     1
102
RTVSPropertyOp32
 70
     1
102
RTVSPropertyOp33
 70
     1
102
RTVSPropertyOp34
 70
     1
102
RTVSPropertyOp35
 70
     1
102
RTVSPropertyOp36
 70
     1
102
RTVSPropertyOp37
 70
     1
102
RTVSPropertyOp38
 70
     1
102
RTVSPropertyOp39
 70
     1
102
RTVSPropertyOp40
 70
     1
102
RTVSPropertyOp41
 70
     1
102
RTVSPropertyOp42
 70
     1
102
RTVSPropertyOp43
 70
     1
102
RTVSPropertyOp44
 70
     1
102
RTVSPropertyOp45
 70
     1
102
RTVSPropertyOp46
 70
     1
102
RTVSPropertyOp47
 70
     1
102
RTVSPropertyOp48
 70
     1
102
RTVSPropertyOp49
 70
     1
102
RTVSPropertyOp50
 70
     1
102
RTVSPropertyOp51
 70
     0
102
RTVSPropertyOp52
 70
     0
102
RTVSPropertyOp53
 70
     1
102
RTVSPropertyOp54
 70
     1
102
RTVSPropertyOp55
 70
     1
102
RTVSPropertyOp56
 70
     1
102
RTVSPropertyOp57
 70
     1
102
RTVSPost2010Prop28
280
     0
102
RTVSPost2010PropOp28
 70
     1
102
RTVSPost2010Prop29
280
     1
102
RTVSPost2010PropOp29
 70
     1
102
RTVSPost2010Prop30
280
     1
102
RTVSPost2010PropOp30
 70
     1
102
RTVSPost2010Prop31
280
     0
102
RTVSPost2010PropOp31
 70
     1
102
RTVSPost2010Prop32
280
     0
102
RTVSPost2010PropOp32
 70
     1
102
RTVSPost2010Prop33
280
     0
102
RTVSPost2010PropOp33
 70
     1
102
RTVSPost2010Prop34
280
     0
102
RTVSPost2010PropOp34
 70
     1
102
RTVSPost2010Prop35
280
     0
102
RTVSPost2010PropOp35
 70
     1
102
RTVSPost2010Prop36
280
     0
102
RTVSPost2010PropOp36
 70
     1
102
RTVSPost2010Prop37
 90
       50
102
RTVSPost2010PropOp37
 70
     1
102
RTVSPost2010Prop38
140
0.0
102
RTVSPost2010PropOp38
 70
     1
102
RTVSPost2010Prop39
140
1.0
102
RTVSPost2010PropOp39
 70
     1
102
RTVSPost2010Prop40
 90
        0
102
RTVSPost2010PropOp40
 70
     1
102
RTVSPost2010Prop41ColorIndex
 90
       18
102
RTVSPost2010Prop41ColorRGB
 90
        0
102
RTVSPost2010PropOp41
 70
     1
102
RTVSPost2010Prop42
 90
       50
102
RTVSPost2010PropOp42
 70
     1
102
RTVSPost2010Prop43
 90
        3
102
RTVSPost2010PropOp43
 70
     1
102
RTVSPost2010Prop44ColorIndex
 90
        5
102
RTVSPost2010Prop44ColorRGB
 90
      255
102
RTVSPost2010PropOp44
 70
     1
102
RTVSPost2010Prop45
280
     0
102
RTVSPost2010PropOp45
 70
     1
102
RTVSPost2010Prop46
 90
       50
102
RTVSPost2010PropOp46
 70
     1
102
RTVSPost2010Prop47
 90
       50
102
RTVSPost2010PropOp47
 70
     1
102
RTVSPost2010Prop48
 90
       50
102
RTVSPost2010PropOp48
 70
     1
102
RTVSPost2010Prop49
280
     0
102
RTVSPost2010PropOp49
 70
     1
102
RTVSPost2010Prop50
 90
       50
102
RTVSPost2010PropOp50
 70
     1
102
RTVSPost2010Prop51ColorIndex
 90
      256
102
RTVSPost2010Prop51ColorRGB
 90
-16777216
102
RTVSPost2010PropOp51
 70
     0
102
RTVSPost2010Prop52
140
1.0
102
RTVSPost2010PropOp52
 70
     0
102
RTVSPost2010Prop53
 90
        2
102
RTVSPost2010PropOp53
 70
     1
102
RTVSPost2010Prop54
  1
strokes_ogs.tif
102
RTVSPost2010PropOp54
 70
     1
102
RTVSPost2010Prop55
280
     0
102
RTVSPost2010PropOp55
 70
     1
102
RTVSPost2010Prop56
140
1.0
102
RTVSPost2010PropOp56
 70
     1
102
RTVSPost2010Prop57
140
1.0
102
RTVSPost2010PropOp57
 70
     1
  0
XRECORD
  5
1AF
102
{ACAD_REACTORS
330
1AE
102
}
330
1AE
100
AcDbXrecord
280
     1
102
RTVSPropertyOp0
 70
     1
102
RTVSPropertyOp1
 70
     1
102
RTVSPropertyOp2
 70
     1
102
RTVSPropertyOp3
 70
     1
102
RTVSPropertyOp4
 70
     1
102
RTVSPropertyOp5
 70
     1
102
RTVSPropertyOp6
 70
     1
102
RTVSPropertyOp7
 70
     1
102
RTVSPropertyOp8
 70
     1
102
RTVSPropertyOp9
 70
     1
102
RTVSPropertyOp10
 70
     1
102
RTVSPropertyOp11
 70
     1
102
RTVSPropertyOp12
 70
     1
102
RTVSPropertyOp13
 70
     1
102
RTVSPropertyOp14
 70
     1
102
RTVSPropertyOp15
 70
     1
102
RTVSPropertyOp16
 70
     1
102
RTVSPropertyOp17
 70
     1
102
RTVSPropertyOp18
 70
     1
102
RTVSPropertyOp19
 70
     1
102
RTVSPropertyOp20
 70
     1
102
RTVSPropertyOp21
 70
     1
102
RTVSPropertyOp22
 70
     1
102
RTVSPropertyOp23
 70
     1
102
RTVSPropertyOp24
 70
     1
102
RTVSPropertyOp25
 70
     1
102
RTVSPropertyOp26
 70
     1
102
RTVSPropertyOp27
 70
     1
102
RTVSPropertyOp28
 70
     1
102
RTVSPropertyOp29
 70
     1
102
RTVSPropertyOp30
 70
     1
102
RTVSPropertyOp31
 70
     1
102
RTVSPropertyOp32
 70
     1
102
RTVSPropertyOp33
 70
     1
102
RTVSPropertyOp34
 70
     1
102
RTVSPropertyOp35
 70
     1
102
RTVSPropertyOp36
 70
     1
102
RTVSPropertyOp37
 70
     1
102
RTVSPropertyOp38
 70
     1
102
RTVSPropertyOp39
 70
     1
102
RTVSPropertyOp40
 70
     1
102
RTVSPropertyOp41
 70
     1
102
RTVSPropertyOp42
 70
     1
102
RTVSPropertyOp43
 70
     1
102
RTVSPropertyOp44
 70
     1
102
RTVSPropertyOp45
 70
     1
102
RTVSPropertyOp46
 70
     1
102
RTVSPropertyOp47
 70
     1
102
RTVSPropertyOp48
 70
     1
102
RTVSPropertyOp49
 70
     1
102
RTVSPropertyOp50
 70
     1
102
RTVSPropertyOp51
 70
     0
102
RTVSPropertyOp52
 70
     0
102
RTVSPropertyOp53
 70
     1
102
RTVSPropertyOp54
 70
     1
102
RTVSPropertyOp55
 70
     1
102
RTVSPropertyOp56
 70
     1
102
RTVSPropertyOp57
 70
     1
102
RTVSPost2010Prop28
280
     0
102
RTVSPost2010PropOp28
 70
     1
102
RTVSPost2010Prop29
280
     1
102
RTVSPost2010PropOp29
 70
     1
102
RTVSPost2010Prop30
280
     1
102
RTVSPost2010PropOp30
 70
     1
102
RTVSPost2010Prop31
280
     0
102
RTVSPost2010PropOp31
 70
     1
102
RTVSPost2010Prop32
280
     0
102
RTVSPost2010PropOp32
 70
     1
102
RTVSPost2010Prop33
280
     0
102
RTVSPost2010PropOp33
 70
     1
102
RTVSPost2010Prop34
280
     0
102
RTVSPost2010PropOp34
 70
     1
102
RTVSPost2010Prop35
280
     0
102
RTVSPost2010PropOp35
 70
     1
102
RTVSPost2010Prop36
280
     0
102
RTVSPost2010PropOp36
 70
     1
102
RTVSPost2010Prop37
 90
       50
102
RTVSPost2010PropOp37
 70
     1
102
RTVSPost2010Prop38
140
0.0
102
RTVSPost2010PropOp38
 70
     1
102
RTVSPost2010Prop39
140
1.0
102
RTVSPost2010PropOp39
 70
     1
102
RTVSPost2010Prop40
 90
        0
102
RTVSPost2010PropOp40
 70
     1
102
RTVSPost2010Prop41ColorIndex
 90
       18
102
RTVSPost2010Prop41ColorRGB
 90
        0
102
RTVSPost2010PropOp41
 70
     1
102
RTVSPost2010Prop42
 90
       50
102
RTVSPost2010PropOp42
 70
     1
102
RTVSPost2010Prop43
 90
        3
102
RTVSPost2010PropOp43
 70
     1
102
RTVSPost2010Prop44ColorIndex
 90
        5
102
RTVSPost2010Prop44ColorRGB
 90
      255
102
RTVSPost2010PropOp44
 70
     1
102
RTVSPost2010Prop45
280
     0
102
RTVSPost2010PropOp45
 70
     1
102
RTVSPost2010Prop46
 90
       50
102
RTVSPost2010PropOp46
 70
     1
102
RTVSPost2010Prop47
 90
       50
102
RTVSPost2010PropOp47
 70
     1
102
RTVSPost2010Prop48
 90
       50
102
RTVSPost2010PropOp48
 70
     1
102
RTVSPost2010Prop49
280
     0
102
RTVSPost2010PropOp49
 70
     1
102
RTVSPost2010Prop50
 90
       50
102
RTVSPost2010PropOp50
 70
     1
102
RTVSPost2010Prop51ColorIndex
 90
      256
102
RTVSPost2010Prop51ColorRGB
 90
-16777216
102
RTVSPost2010PropOp51
 70
     0
102
RTVSPost2010Prop52
140
1.0
102
RTVSPost2010PropOp52
 70
     0
102
RTVSPost2010Prop53
 90
        2
102
RTVSPost2010PropOp53
 70
     1
102
RTVSPost2010Prop54
  1
strokes_ogs.tif
102
RTVSPost2010PropOp54
 70
     1
102
RTVSPost2010Prop55
280
     0
102
RTVSPost2010PropOp55
 70
     1
102
RTVSPost2010Prop56
140
1.0
102
RTVSPost2010PropOp56
 70
     1
102
RTVSPost2010Prop57
140
1.0
102
RTVSPost2010PropOp57
 70
     1
  0
XRECORD
  5
1C3
102
{ACAD_REACTORS
330
1C2
102
}
330
1C2
100
AcDbXrecord
280
     1
102
RTVSPropertyOp0
 70
     0
102
RTVSPropertyOp1
 70
     0
102
RTVSPropertyOp2
 70
     0
102
RTVSPropertyOp3
 70
     0
102
RTVSPropertyOp4
 70
     0
102
RTVSPropertyOp5
 70
     0
102
RTVSPropertyOp6
 70
     0
102
RTVSPropertyOp7
 70
     0
102
RTVSPropertyOp8
 70
     0
102
RTVSPropertyOp9
 70
     0
102
RTVSPropertyOp10
 70
     0
102
RTVSPropertyOp11
 70
     0
102
RTVSPropertyOp12
 70
     0
102
RTVSPropertyOp13
 70
     0
102
RTVSPropertyOp14
 70
     2
102
RTVSPropertyOp15
 70
     0
102
RTVSPropertyOp16
 70
     0
102
RTVSPropertyOp17
 70
     0
102
RTVSPropertyOp18
 70
     0
102
RTVSPropertyOp19
 70
     0
102
RTVSPropertyOp20
 70
     0
102
RTVSPropertyOp21
 70
     0
102
RTVSPropertyOp22
 70
     0
102
RTVSPropertyOp23
 70
     0
102
RTVSPropertyOp24
 70
     0
102
RTVSPropertyOp25
 70
     0
102
RTVSPropertyOp26
 70
     0
102
RTVSPropertyOp27
 70
     0
102
RTVSPropertyOp28
 70
     0
102
RTVSPropertyOp29
 70
     0
102
RTVSPropertyOp30
 70
     0
102
RTVSPropertyOp31
 70
     0
102
RTVSPropertyOp32
 70
     0
102
RTVSPropertyOp33
 70
     0
102
RTVSPropertyOp34
 70
     0
102
RTVSPropertyOp35
 70
     0
102
RTVSPropertyOp36
 70
     0
102
RTVSPropertyOp37
 70
     0
102
RTVSPropertyOp38
 70
     0
102
RTVSPropertyOp39
 70
     0
102
RTVSPropertyOp40
 70
     0
102
RTVSPropertyOp41
 70
     0
102
RTVSPropertyOp42
 70
     0
102
RTVSPropertyOp43
 70
     0
102
RTVSPropertyOp44
 70
     0
102
RTVSPropertyOp45
 70
     0
102
RTVSPropertyOp46
 70
     0
102
RTVSPropertyOp47
 70
     0
102
RTVSPropertyOp48
 70
     0
102
RTVSPropertyOp49
 70
     0
102
RTVSPropertyOp50
 70
     0
102
RTVSPropertyOp51
 70
     0
102
RTVSPropertyOp52
 70
     0
102
RTVSPropertyOp53
 70
     0
102
RTVSPropertyOp54
 70
     0
102
RTVSPropertyOp55
 70
     0
102
RTVSPropertyOp56
 70
     0
102
RTVSPropertyOp57
 70
     0
102
RTVSPost2010Prop28
280
     0
102
RTVSPost2010PropOp28
 70
     0
102
RTVSPost2010Prop29
280
     1
102
RTVSPost2010PropOp29
 70
     0
102
RTVSPost2010Prop30
280
     1
102
RTVSPost2010PropOp30
 70
     0
102
RTVSPost2010Prop31
280
     0
102
RTVSPost2010PropOp31
 70
     0
102
RTVSPost2010Prop32
280
     0
102
RTVSPost2010PropOp32
 70
     0
102
RTVSPost2010Prop33
280
     0
102
RTVSPost2010PropOp33
 70
     0
102
RTVSPost2010Prop34
280
     0
102
RTVSPost2010PropOp34
 70
     0
102
RTVSPost2010Prop35
280
     0
102
RTVSPost2010PropOp35
 70
     0
102
RTVSPost2010Prop36
280
     0
102
RTVSPost2010PropOp36
 70
     0
102
RTVSPost2010Prop37
 90
       50
102
RTVSPost2010PropOp37
 70
     0
102
RTVSPost2010Prop38
140
0.0
102
RTVSPost2010PropOp38
 70
     0
102
RTVSPost2010Prop39
140
1.0
102
RTVSPost2010PropOp39
 70
     0
102
RTVSPost2010Prop40
 90
        0
102
RTVSPost2010PropOp40
 70
     0
102
RTVSPost2010Prop41ColorIndex
 90
       18
102
RTVSPost2010Prop41ColorRGB
 90
        0
102
RTVSPost2010PropOp41
 70
     0
102
RTVSPost2010Prop42
 90
       50
102
RTVSPost2010PropOp42
 70
     0
102
RTVSPost2010Prop43
 90
        3
102
RTVSPost2010PropOp43
 70
     0
102
RTVSPost2010Prop44ColorIndex
 90
        5
102
RTVSPost2010Prop44ColorRGB
 90
      255
102
RTVSPost2010PropOp44
 70
     0
102
RTVSPost2010Prop45
280
     0
102
RTVSPost2010PropOp45
 70
     0
102
RTVSPost2010Prop46
 90
       50
102
RTVSPost2010PropOp46
 70
     0
102
RTVSPost2010Prop47
 90
       50
102
RTVSPost2010PropOp47
 70
     0
102
RTVSPost2010Prop48
 90
       50
102
RTVSPost2010PropOp48
 70
     0
102
RTVSPost2010Prop49
280
     0
102
RTVSPost2010PropOp49
 70
     0
102
RTVSPost2010Prop50
 90
       50
102
RTVSPost2010PropOp50
 70
     0
102
RTVSPost2010Prop51ColorIndex
 90
      256
102
RTVSPost2010Prop51ColorRGB
 90
-16777216
102
RTVSPost2010PropOp51
 70
     0
102
RTVSPost2010Prop52
140
1.0
102
RTVSPost2010PropOp52
 70
     0
102
RTVSPost2010Prop53
 90
        2
102
RTVSPost2010PropOp53
 70
     0
102
RTVSPost2010Prop54
  1
strokes_ogs.tif
102
RTVSPost2010PropOp54
 70
     0
102
RTVSPost2010Prop55
280
     0
102
RTVSPost2010PropOp55
 70
     0
102
RTVSPost2010Prop56
140
1.0
102
RTVSPost2010PropOp56
 70
     0
102
RTVSPost2010Prop57
140
1.0
102
RTVSPost2010PropOp57
 70
     0
  0
XRECORD
  5
1BD
102
{ACAD_REACTORS
330
1BC
102
}
330
1BC
100
AcDbXrecord
280
     1
102
RTVSPropertyOp0
 70
     1
102
RTVSPropertyOp1
 70
     1
102
RTVSPropertyOp2
 70
     1
102
RTVSPropertyOp3
 70
     1
102
RTVSPropertyOp4
 70
     1
102
RTVSPropertyOp5
 70
     1
102
RTVSPropertyOp6
 70
     1
102
RTVSPropertyOp7
 70
     1
102
RTVSPropertyOp8
 70
     1
102
RTVSPropertyOp9
 70
     1
102
RTVSPropertyOp10
 70
     1
102
RTVSPropertyOp11
 70
     1
102
RTVSPropertyOp12
 70
     1
102
RTVSPropertyOp13
 70
     1
102
RTVSPropertyOp14
 70
     1
102
RTVSPropertyOp15
 70
     1
102
RTVSPropertyOp16
 70
     1
102
RTVSPropertyOp17
 70
     1
102
RTVSPropertyOp18
 70
     1
102
RTVSPropertyOp19
 70
     1
102
RTVSPropertyOp20
 70
     1
102
RTVSPropertyOp21
 70
     1
102
RTVSPropertyOp22
 70
     1
102
RTVSPropertyOp23
 70
     1
102
RTVSPropertyOp24
 70
     1
102
RTVSPropertyOp25
 70
     1
102
RTVSPropertyOp26
 70
     1
102
RTVSPropertyOp27
 70
     1
102
RTVSPropertyOp28
 70
     1
102
RTVSPropertyOp29
 70
     1
102
RTVSPropertyOp30
 70
     1
102
RTVSPropertyOp31
 70
     1
102
RTVSPropertyOp32
 70
     1
102
RTVSPropertyOp33
 70
     1
102
RTVSPropertyOp34
 70
     1
102
RTVSPropertyOp35
 70
     1
102
RTVSPropertyOp36
 70
     1
102
RTVSPropertyOp37
 70
     1
102
RTVSPropertyOp38
 70
     1
102
RTVSPropertyOp39
 70
     1
102
RTVSPropertyOp40
 70
     1
102
RTVSPropertyOp41
 70
     1
102
RTVSPropertyOp42
 70
     1
102
RTVSPropertyOp43
 70
     1
102
RTVSPropertyOp44
 70
     1
102
RTVSPropertyOp45
 70
     1
102
RTVSPropertyOp46
 70
     1
102
RTVSPropertyOp47
 70
     1
102
RTVSPropertyOp48
 70
     1
102
RTVSPropertyOp49
 70
     1
102
RTVSPropertyOp50
 70
     1
102
RTVSPropertyOp51
 70
     0
102
RTVSPropertyOp52
 70
     0
102
RTVSPropertyOp53
 70
     1
102
RTVSPropertyOp54
 70
     1
102
RTVSPropertyOp55
 70
     1
102
RTVSPropertyOp56
 70
     1
102
RTVSPropertyOp57
 70
     1
102
RTVSPost2010Prop28
280
     0
102
RTVSPost2010PropOp28
 70
     1
102
RTVSPost2010Prop29
280
     1
102
RTVSPost2010PropOp29
 70
     1
102
RTVSPost2010Prop30
280
     1
102
RTVSPost2010PropOp30
 70
     1
102
RTVSPost2010Prop31
280
     0
102
RTVSPost2010PropOp31
 70
     1
102
RTVSPost2010Prop32
280
     0
102
RTVSPost2010PropOp32
 70
     1
102
RTVSPost2010Prop33
280
     0
102
RTVSPost2010PropOp33
 70
     1
102
RTVSPost2010Prop34
280
     0
102
RTVSPost2010PropOp34
 70
     1
102
RTVSPost2010Prop35
280
     0
102
RTVSPost2010PropOp35
 70
     1
102
RTVSPost2010Prop36
280
     0
102
RTVSPost2010PropOp36
 70
     1
102
RTVSPost2010Prop37
 90
       50
102
RTVSPost2010PropOp37
 70
     1
102
RTVSPost2010Prop38
140
0.0
102
RTVSPost2010PropOp38
 70
     1
102
RTVSPost2010Prop39
140
1.0
102
RTVSPost2010PropOp39
 70
     1
102
RTVSPost2010Prop40
 90
        0
102
RTVSPost2010PropOp40
 70
     1
102
RTVSPost2010Prop41ColorIndex
 90
       18
102
RTVSPost2010Prop41ColorRGB
 90
        0
102
RTVSPost2010PropOp41
 70
     1
102
RTVSPost2010Prop42
 90
       50
102
RTVSPost2010PropOp42
 70
     1
102
RTVSPost2010Prop43
 90
        3
102
RTVSPost2010PropOp43
 70
     1
102
RTVSPost2010Prop44ColorIndex
 90
        5
102
RTVSPost2010Prop44ColorRGB
 90
      255
102
RTVSPost2010PropOp44
 70
     1
102
RTVSPost2010Prop45
280
     0
102
RTVSPost2010PropOp45
 70
     1
102
RTVSPost2010Prop46
 90
       50
102
RTVSPost2010PropOp46
 70
     1
102
RTVSPost2010Prop47
 90
       50
102
RTVSPost2010PropOp47
 70
     1
102
RTVSPost2010Prop48
 90
       50
102
RTVSPost2010PropOp48
 70
     1
102
RTVSPost2010Prop49
280
     0
102
RTVSPost2010PropOp49
 70
     1
102
RTVSPost2010Prop50
 90
       50
102
RTVSPost2010PropOp50
 70
     1
102
RTVSPost2010Prop51ColorIndex
 90
      256
102
RTVSPost2010Prop51ColorRGB
 90
-16777216
102
RTVSPost2010PropOp51
 70
     0
102
RTVSPost2010Prop52
140
1.0
102
RTVSPost2010PropOp52
 70
     0
102
RTVSPost2010Prop53
 90
        2
102
RTVSPost2010PropOp53
 70
     1
102
RTVSPost2010Prop54
  1
strokes_ogs.tif
102
RTVSPost2010PropOp54
 70
     1
102
RTVSPost2010Prop55
280
     0
102
RTVSPost2010PropOp55
 70
     1
102
RTVSPost2010Prop56
140
1.0
102
RTVSPost2010PropOp56
 70
     1
102
RTVSPost2010Prop57
140
1.0
102
RTVSPost2010PropOp57
 70
     1
  0
XRECORD
  5
1C5
102
{ACAD_REACTORS
330
1C4
102
}
330
1C4
100
AcDbXrecord
280
     1
102
RTVSPropertyOp0
 70
     0
102
RTVSPropertyOp1
 70
     0
102
RTVSPropertyOp2
 70
     0
102
RTVSPropertyOp3
 70
     0
102
RTVSPropertyOp4
 70
     0
102
RTVSPropertyOp5
 70
     0
102
RTVSPropertyOp6
 70
     0
102
RTVSPropertyOp7
 70
     0
102
RTVSPropertyOp8
 70
     0
102
RTVSPropertyOp9
 70
     0
102
RTVSPropertyOp10
 70
     0
102
RTVSPropertyOp11
 70
     0
102
RTVSPropertyOp12
 70
     0
102
RTVSPropertyOp13
 70
     0
102
RTVSPropertyOp14
 70
     2
102
RTVSPropertyOp15
 70
     0
102
RTVSPropertyOp16
 70
     0
102
RTVSPropertyOp17
 70
     0
102
RTVSPropertyOp18
 70
     0
102
RTVSPropertyOp19
 70
     0
102
RTVSPropertyOp20
 70
     0
102
RTVSPropertyOp21
 70
     0
102
RTVSPropertyOp22
 70
     0
102
RTVSPropertyOp23
 70
     0
102
RTVSPropertyOp24
 70
     0
102
RTVSPropertyOp25
 70
     0
102
RTVSPropertyOp26
 70
     0
102
RTVSPropertyOp27
 70
     0
102
RTVSPropertyOp28
 70
     0
102
RTVSPropertyOp29
 70
     0
102
RTVSPropertyOp30
 70
     0
102
RTVSPropertyOp31
 70
     0
102
RTVSPropertyOp32
 70
     0
102
RTVSPropertyOp33
 70
     0
102
RTVSPropertyOp34
 70
     0
102
RTVSPropertyOp35
 70
     0
102
RTVSPropertyOp36
 70
     0
102
RTVSPropertyOp37
 70
     0
102
RTVSPropertyOp38
 70
     0
102
RTVSPropertyOp39
 70
     0
102
RTVSPropertyOp40
 70
     0
102
RTVSPropertyOp41
 70
     0
102
RTVSPropertyOp42
 70
     0
102
RTVSPropertyOp43
 70
     0
102
RTVSPropertyOp44
 70
     0
102
RTVSPropertyOp45
 70
     0
102
RTVSPropertyOp46
 70
     0
102
RTVSPropertyOp47
 70
     0
102
RTVSPropertyOp48
 70
     0
102
RTVSPropertyOp49
 70
     0
102
RTVSPropertyOp50
 70
     0
102
RTVSPropertyOp51
 70
     0
102
RTVSPropertyOp52
 70
     0
102
RTVSPropertyOp53
 70
     0
102
RTVSPropertyOp54
 70
     0
102
RTVSPropertyOp55
 70
     0
102
RTVSPropertyOp56
 70
     0
102
RTVSPropertyOp57
 70
     0
102
RTVSPost2010Prop28
280
     0
102
RTVSPost2010PropOp28
 70
     0
102
RTVSPost2010Prop29
280
     1
102
RTVSPost2010PropOp29
 70
     0
102
RTVSPost2010Prop30
280
     1
102
RTVSPost2010PropOp30
 70
     0
102
RTVSPost2010Prop31
280
     0
102
RTVSPost2010PropOp31
 70
     0
102
RTVSPost2010Prop32
280
     0
102
RTVSPost2010PropOp32
 70
     0
102
RTVSPost2010Prop33
280
     0
102
RTVSPost2010PropOp33
 70
     0
102
RTVSPost2010Prop34
280
     0
102
RTVSPost2010PropOp34
 70
     0
102
RTVSPost2010Prop35
280
     0
102
RTVSPost2010PropOp35
 70
     0
102
RTVSPost2010Prop36
280
     0
102
RTVSPost2010PropOp36
 70
     0
102
RTVSPost2010Prop37
 90
       50
102
RTVSPost2010PropOp37
 70
     0
102
RTVSPost2010Prop38
140
0.0
102
RTVSPost2010PropOp38
 70
     0
102
RTVSPost2010Prop39
140
1.0
102
RTVSPost2010PropOp39
 70
     0
102
RTVSPost2010Prop40
 90
        0
102
RTVSPost2010PropOp40
 70
     0
102
RTVSPost2010Prop41ColorIndex
 90
       18
102
RTVSPost2010Prop41ColorRGB
 90
        0
102
RTVSPost2010PropOp41
 70
     0
102
RTVSPost2010Prop42
 90
       50
102
RTVSPost2010PropOp42
 70
     0
102
RTVSPost2010Prop43
 90
        3
102
RTVSPost2010PropOp43
 70
     0
102
RTVSPost2010Prop44ColorIndex
 90
        5
102
RTVSPost2010Prop44ColorRGB
 90
      255
102
RTVSPost2010PropOp44
 70
     0
102
RTVSPost2010Prop45
280
     0
102
RTVSPost2010PropOp45
 70
     0
102
RTVSPost2010Prop46
 90
       50
102
RTVSPost2010PropOp46
 70
     0
102
RTVSPost2010Prop47
 90
       50
102
RTVSPost2010PropOp47
 70
     0
102
RTVSPost2010Prop48
 90
       50
102
RTVSPost2010PropOp48
 70
     0
102
RTVSPost2010Prop49
280
     0
102
RTVSPost2010PropOp49
 70
     0
102
RTVSPost2010Prop50
 90
       50
102
RTVSPost2010PropOp50
 70
     0
102
RTVSPost2010Prop51ColorIndex
 90
      256
102
RTVSPost2010Prop51ColorRGB
 90
-16777216
102
RTVSPost2010PropOp51
 70
     0
102
RTVSPost2010Prop52
140
1.0
102
RTVSPost2010PropOp52
 70
     0
102
RTVSPost2010Prop53
 90
        2
102
RTVSPost2010PropOp53
 70
     0
102
RTVSPost2010Prop54
  1
strokes_ogs.tif
102
RTVSPost2010PropOp54
 70
     0
102
RTVSPost2010Prop55
280
     0
102
RTVSPost2010PropOp55
 70
     0
102
RTVSPost2010Prop56
140
1.0
102
RTVSPost2010PropOp56
 70
     0
102
RTVSPost2010Prop57
140
1.0
102
RTVSPost2010PropOp57
 70
     0
  0
XRECORD
  5
1B3
102
{ACAD_REACTORS
330
1B2
102
}
330
1B2
100
AcDbXrecord
280
     1
102
RTVSPropertyOp0
 70
     1
102
RTVSPropertyOp1
 70
     1
102
RTVSPropertyOp2
 70
     1
102
RTVSPropertyOp3
 70
     1
102
RTVSPropertyOp4
 70
     1
102
RTVSPropertyOp5
 70
     1
102
RTVSPropertyOp6
 70
     1
102
RTVSPropertyOp7
 70
     1
102
RTVSPropertyOp8
 70
     1
102
RTVSPropertyOp9
 70
     1
102
RTVSPropertyOp10
 70
     1
102
RTVSPropertyOp11
 70
     1
102
RTVSPropertyOp12
 70
     1
102
RTVSPropertyOp13
 70
     1
102
RTVSPropertyOp14
 70
     1
102
RTVSPropertyOp15
 70
     1
102
RTVSPropertyOp16
 70
     1
102
RTVSPropertyOp17
 70
     1
102
RTVSPropertyOp18
 70
     1
102
RTVSPropertyOp19
 70
     1
102
RTVSPropertyOp20
 70
     1
102
RTVSPropertyOp21
 70
     1
102
RTVSPropertyOp22
 70
     1
102
RTVSPropertyOp23
 70
     1
102
RTVSPropertyOp24
 70
     1
102
RTVSPropertyOp25
 70
     1
102
RTVSPropertyOp26
 70
     1
102
RTVSPropertyOp27
 70
     1
102
RTVSPropertyOp28
 70
     1
102
RTVSPropertyOp29
 70
     1
102
RTVSPropertyOp30
 70
     1
102
RTVSPropertyOp31
 70
     1
102
RTVSPropertyOp32
 70
     1
102
RTVSPropertyOp33
 70
     1
102
RTVSPropertyOp34
 70
     1
102
RTVSPropertyOp35
 70
     1
102
RTVSPropertyOp36
 70
     1
102
RTVSPropertyOp37
 70
     1
102
RTVSPropertyOp38
 70
     1
102
RTVSPropertyOp39
 70
     1
102
RTVSPropertyOp40
 70
     1
102
RTVSPropertyOp41
 70
     1
102
RTVSPropertyOp42
 70
     1
102
RTVSPropertyOp43
 70
     1
102
RTVSPropertyOp44
 70
     1
102
RTVSPropertyOp45
 70
     1
102
RTVSPropertyOp46
 70
     1
102
RTVSPropertyOp47
 70
     1
102
RTVSPropertyOp48
 70
     1
102
RTVSPropertyOp49
 70
     1
102
RTVSPropertyOp50
 70
     1
102
RTVSPropertyOp51
 70
     0
102
RTVSPropertyOp52
 70
     0
102
RTVSPropertyOp53
 70
     1
102
RTVSPropertyOp54
 70
     1
102
RTVSPropertyOp55
 70
     1
102
RTVSPropertyOp56
 70
     1
102
RTVSPropertyOp57
 70
     1
102
RTVSPost2010Prop28
280
     0
102
RTVSPost2010PropOp28
 70
     1
102
RTVSPost2010Prop29
280
     1
102
RTVSPost2010PropOp29
 70
     1
102
RTVSPost2010Prop30
280
     1
102
RTVSPost2010PropOp30
 70
     1
102
RTVSPost2010Prop31
280
     0
102
RTVSPost2010PropOp31
 70
     1
102
RTVSPost2010Prop32
280
     0
102
RTVSPost2010PropOp32
 70
     1
102
RTVSPost2010Prop33
280
     0
102
RTVSPost2010PropOp33
 70
     1
102
RTVSPost2010Prop34
280
     0
102
RTVSPost2010PropOp34
 70
     1
102
RTVSPost2010Prop35
280
     0
102
RTVSPost2010PropOp35
 70
     1
102
RTVSPost2010Prop36
280
     0
102
RTVSPost2010PropOp36
 70
     1
102
RTVSPost2010Prop37
 90
       50
102
RTVSPost2010PropOp37
 70
     1
102
RTVSPost2010Prop38
140
0.0
102
RTVSPost2010PropOp38
 70
     1
102
RTVSPost2010Prop39
140
1.0
102
RTVSPost2010PropOp39
 70
     1
102
RTVSPost2010Prop40
 90
        0
102
RTVSPost2010PropOp40
 70
     1
102
RTVSPost2010Prop41ColorIndex
 90
       18
102
RTVSPost2010Prop41ColorRGB
 90
        0
102
RTVSPost2010PropOp41
 70
     1
102
RTVSPost2010Prop42
 90
       50
102
RTVSPost2010PropOp42
 70
     1
102
RTVSPost2010Prop43
 90
        3
102
RTVSPost2010PropOp43
 70
     1
102
RTVSPost2010Prop44ColorIndex
 90
        5
102
RTVSPost2010Prop44ColorRGB
 90
      255
102
RTVSPost2010PropOp44
 70
     1
102
RTVSPost2010Prop45
280
     0
102
RTVSPost2010PropOp45
 70
     1
102
RTVSPost2010Prop46
 90
       50
102
RTVSPost2010PropOp46
 70
     1
102
RTVSPost2010Prop47
 90
       50
102
RTVSPost2010PropOp47
 70
     1
102
RTVSPost2010Prop48
 90
       50
102
RTVSPost2010PropOp48
 70
     1
102
RTVSPost2010Prop49
280
     0
102
RTVSPost2010PropOp49
 70
     1
102
RTVSPost2010Prop50
 90
       50
102
RTVSPost2010PropOp50
 70
     1
102
RTVSPost2010Prop51ColorIndex
 90
      256
102
RTVSPost2010Prop51ColorRGB
 90
-16777216
102
RTVSPost2010PropOp51
 70
     0
102
RTVSPost2010Prop52
140
1.0
102
RTVSPost2010PropOp52
 70
     0
102
RTVSPost2010Prop53
 90
        2
102
RTVSPost2010PropOp53
 70
     1
102
RTVSPost2010Prop54
  1
strokes_ogs.tif
102
RTVSPost2010PropOp54
 70
     1
102
RTVSPost2010Prop55
280
     0
102
RTVSPost2010PropOp55
 70
     1
102
RTVSPost2010Prop56
140
1.0
102
RTVSPost2010PropOp56
 70
     1
102
RTVSPost2010Prop57
140
1.0
102
RTVSPost2010PropOp57
 70
     1
  0
XRECORD
  5
1D1
102
{ACAD_REACTORS
330
1D0
102
}
330
1D0
100
AcDbXrecord
280
     1
102
RTVSPropertyOp0
 70
     1
102
RTVSPropertyOp1
 70
     1
102
RTVSPropertyOp2
 70
     1
102
RTVSPropertyOp3
 70
     1
102
RTVSPropertyOp4
 70
     1
102
RTVSPropertyOp5
 70
     1
102
RTVSPropertyOp6
 70
     1
102
RTVSPropertyOp7
 70
     1
102
RTVSPropertyOp8
 70
     1
102
RTVSPropertyOp9
 70
     1
102
RTVSPropertyOp10
 70
     1
102
RTVSPropertyOp11
 70
     1
102
RTVSPropertyOp12
 70
     1
102
RTVSPropertyOp13
 70
     1
102
RTVSPropertyOp14
 70
     1
102
RTVSPropertyOp15
 70
     1
102
RTVSPropertyOp16
 70
     1
102
RTVSPropertyOp17
 70
     1
102
RTVSPropertyOp18
 70
     1
102
RTVSPropertyOp19
 70
     1
102
RTVSPropertyOp20
 70
     1
102
RTVSPropertyOp21
 70
     1
102
RTVSPropertyOp22
 70
     1
102
RTVSPropertyOp23
 70
     1
102
RTVSPropertyOp24
 70
     1
102
RTVSPropertyOp25
 70
     1
102
RTVSPropertyOp26
 70
     1
102
RTVSPropertyOp27
 70
     1
102
RTVSPropertyOp28
 70
     1
102
RTVSPropertyOp29
 70
     1
102
RTVSPropertyOp30
 70
     1
102
RTVSPropertyOp31
 70
     1
102
RTVSPropertyOp32
 70
     1
102
RTVSPropertyOp33
 70
     1
102
RTVSPropertyOp34
 70
     1
102
RTVSPropertyOp35
 70
     1
102
RTVSPropertyOp36
 70
     1
102
RTVSPropertyOp37
 70
     1
102
RTVSPropertyOp38
 70
     1
102
RTVSPropertyOp39
 70
     1
102
RTVSPropertyOp40
 70
     1
102
RTVSPropertyOp41
 70
     1
102
RTVSPropertyOp42
 70
     1
102
RTVSPropertyOp43
 70
     1
102
RTVSPropertyOp44
 70
     1
102
RTVSPropertyOp45
 70
     1
102
RTVSPropertyOp46
 70
     1
102
RTVSPropertyOp47
 70
     1
102
RTVSPropertyOp48
 70
     1
102
RTVSPropertyOp49
 70
     1
102
RTVSPropertyOp50
 70
     1
102
RTVSPropertyOp51
 70
     0
102
RTVSPropertyOp52
 70
     0
102
RTVSPropertyOp53
 70
     1
102
RTVSPropertyOp54
 70
     1
102
RTVSPropertyOp55
 70
     1
102
RTVSPropertyOp56
 70
     1
102
RTVSPropertyOp57
 70
     1
102
RTVSPost2010Prop28
280
     0
102
RTVSPost2010PropOp28
 70
     1
102
RTVSPost2010Prop29
280
     1
102
RTVSPost2010PropOp29
 70
     1
102
RTVSPost2010Prop30
280
     1
102
RTVSPost2010PropOp30
 70
     1
102
RTVSPost2010Prop31
280
     0
102
RTVSPost2010PropOp31
 70
     1
102
RTVSPost2010Prop32
280
     0
102
RTVSPost2010PropOp32
 70
     1
102
RTVSPost2010Prop33
280
     0
102
RTVSPost2010PropOp33
 70
     1
102
RTVSPost2010Prop34
280
     0
102
RTVSPost2010PropOp34
 70
     1
102
RTVSPost2010Prop35
280
     0
102
RTVSPost2010PropOp35
 70
     1
102
RTVSPost2010Prop36
280
     0
102
RTVSPost2010PropOp36
 70
     1
102
RTVSPost2010Prop37
 90
       50
102
RTVSPost2010PropOp37
 70
     1
102
RTVSPost2010Prop38
140
0.0
102
RTVSPost2010PropOp38
 70
     1
102
RTVSPost2010Prop39
140
1.0
102
RTVSPost2010PropOp39
 70
     1
102
RTVSPost2010Prop40
 90
        0
102
RTVSPost2010PropOp40
 70
     1
102
RTVSPost2010Prop41ColorIndex
 90
       18
102
RTVSPost2010Prop41ColorRGB
 90
        0
102
RTVSPost2010PropOp41
 70
     1
102
RTVSPost2010Prop42
 90
       50
102
RTVSPost2010PropOp42
 70
     1
102
RTVSPost2010Prop43
 90
        3
102
RTVSPost2010PropOp43
 70
     1
102
RTVSPost2010Prop44ColorIndex
 90
        5
102
RTVSPost2010Prop44ColorRGB
 90
      255
102
RTVSPost2010PropOp44
 70
     1
102
RTVSPost2010Prop45
280
     0
102
RTVSPost2010PropOp45
 70
     1
102
RTVSPost2010Prop46
 90
       50
102
RTVSPost2010PropOp46
 70
     1
102
RTVSPost2010Prop47
 90
       50
102
RTVSPost2010PropOp47
 70
     1
102
RTVSPost2010Prop48
 90
       50
102
RTVSPost2010PropOp48
 70
     1
102
RTVSPost2010Prop49
280
     0
102
RTVSPost2010PropOp49
 70
     1
102
RTVSPost2010Prop50
 90
       50
102
RTVSPost2010PropOp50
 70
     1
102
RTVSPost2010Prop51ColorIndex
 90
      256
102
RTVSPost2010Prop51ColorRGB
 90
-16777216
102
RTVSPost2010PropOp51
 70
     0
102
RTVSPost2010Prop52
140
1.0
102
RTVSPost2010PropOp52
 70
     0
102
RTVSPost2010Prop53
 90
        2
102
RTVSPost2010PropOp53
 70
     1
102
RTVSPost2010Prop54
  1
strokes_ogs.tif
102
RTVSPost2010PropOp54
 70
     1
102
RTVSPost2010Prop55
280
     0
102
RTVSPost2010PropOp55
 70
     1
102
RTVSPost2010Prop56
140
1.0
102
RTVSPost2010PropOp56
 70
     1
102
RTVSPost2010Prop57
140
1.0
102
RTVSPost2010PropOp57
 70
     1
  0
XRECORD
  5
1CF
102
{ACAD_REACTORS
330
1CE
102
}
330
1CE
100
AcDbXrecord
280
     1
102
RTVSPropertyOp0
 70
     1
102
RTVSPropertyOp1
 70
     1
102
RTVSPropertyOp2
 70
     1
102
RTVSPropertyOp3
 70
     1
102
RTVSPropertyOp4
 70
     1
102
RTVSPropertyOp5
 70
     1
102
RTVSPropertyOp6
 70
     1
102
RTVSPropertyOp7
 70
     1
102
RTVSPropertyOp8
 70
     1
102
RTVSPropertyOp9
 70
     1
102
RTVSPropertyOp10
 70
     1
102
RTVSPropertyOp11
 70
     1
102
RTVSPropertyOp12
 70
     1
102
RTVSPropertyOp13
 70
     1
102
RTVSPropertyOp14
 70
     1
102
RTVSPropertyOp15
 70
     1
102
RTVSPropertyOp16
 70
     1
102
RTVSPropertyOp17
 70
     1
102
RTVSPropertyOp18
 70
     1
102
RTVSPropertyOp19
 70
     1
102
RTVSPropertyOp20
 70
     1
102
RTVSPropertyOp21
 70
     1
102
RTVSPropertyOp22
 70
     1
102
RTVSPropertyOp23
 70
     1
102
RTVSPropertyOp24
 70
     1
102
RTVSPropertyOp25
 70
     1
102
RTVSPropertyOp26
 70
     1
102
RTVSPropertyOp27
 70
     1
102
RTVSPropertyOp28
 70
     1
102
RTVSPropertyOp29
 70
     1
102
RTVSPropertyOp30
 70
     1
102
RTVSPropertyOp31
 70
     1
102
RTVSPropertyOp32
 70
     1
102
RTVSPropertyOp33
 70
     1
102
RTVSPropertyOp34
 70
     1
102
RTVSPropertyOp35
 70
     1
102
RTVSPropertyOp36
 70
     1
102
RTVSPropertyOp37
 70
     1
102
RTVSPropertyOp38
 70
     1
102
RTVSPropertyOp39
 70
     1
102
RTVSPropertyOp40
 70
     1
102
RTVSPropertyOp41
 70
     1
102
RTVSPropertyOp42
 70
     1
102
RTVSPropertyOp43
 70
     1
102
RTVSPropertyOp44
 70
     1
102
RTVSPropertyOp45
 70
     1
102
RTVSPropertyOp46
 70
     1
102
RTVSPropertyOp47
 70
     1
102
RTVSPropertyOp48
 70
     1
102
RTVSPropertyOp49
 70
     1
102
RTVSPropertyOp50
 70
     1
102
RTVSPropertyOp51
 70
     0
102
RTVSPropertyOp52
 70
     0
102
RTVSPropertyOp53
 70
     1
102
RTVSPropertyOp54
 70
     1
102
RTVSPropertyOp55
 70
     1
102
RTVSPropertyOp56
 70
     1
102
RTVSPropertyOp57
 70
     1
102
RTVSPost2010Prop28
280
     0
102
RTVSPost2010PropOp28
 70
     1
102
RTVSPost2010Prop29
280
     1
102
RTVSPost2010PropOp29
 70
     1
102
RTVSPost2010Prop30
280
     1
102
RTVSPost2010PropOp30
 70
     1
102
RTVSPost2010Prop31
280
     0
102
RTVSPost2010PropOp31
 70
     1
102
RTVSPost2010Prop32
280
     0
102
RTVSPost2010PropOp32
 70
     1
102
RTVSPost2010Prop33
280
     0
102
RTVSPost2010PropOp33
 70
     1
102
RTVSPost2010Prop34
280
     0
102
RTVSPost2010PropOp34
 70
     1
102
RTVSPost2010Prop35
280
     0
102
RTVSPost2010PropOp35
 70
     1
102
RTVSPost2010Prop36
280
     0
102
RTVSPost2010PropOp36
 70
     1
102
RTVSPost2010Prop37
 90
       50
102
RTVSPost2010PropOp37
 70
     1
102
RTVSPost2010Prop38
140
0.0
102
RTVSPost2010PropOp38
 70
     1
102
RTVSPost2010Prop39
140
1.0
102
RTVSPost2010PropOp39
 70
     1
102
RTVSPost2010Prop40
 90
        0
102
RTVSPost2010PropOp40
 70
     1
102
RTVSPost2010Prop41ColorIndex
 90
       18
102
RTVSPost2010Prop41ColorRGB
 90
        0
102
RTVSPost2010PropOp41
 70
     1
102
RTVSPost2010Prop42
 90
       50
102
RTVSPost2010PropOp42
 70
     1
102
RTVSPost2010Prop43
 90
        3
102
RTVSPost2010PropOp43
 70
     1
102
RTVSPost2010Prop44ColorIndex
 90
        5
102
RTVSPost2010Prop44ColorRGB
 90
      255
102
RTVSPost2010PropOp44
 70
     1
102
RTVSPost2010Prop45
280
     0
102
RTVSPost2010PropOp45
 70
     1
102
RTVSPost2010Prop46
 90
       50
102
RTVSPost2010PropOp46
 70
     1
102
RTVSPost2010Prop47
 90
       50
102
RTVSPost2010PropOp47
 70
     1
102
RTVSPost2010Prop48
 90
       50
102
RTVSPost2010PropOp48
 70
     1
102
RTVSPost2010Prop49
280
     0
102
RTVSPost2010PropOp49
 70
     1
102
RTVSPost2010Prop50
 90
       50
102
RTVSPost2010PropOp50
 70
     1
102
RTVSPost2010Prop51ColorIndex
 90
      256
102
RTVSPost2010Prop51ColorRGB
 90
-16777216
102
RTVSPost2010PropOp51
 70
     0
102
RTVSPost2010Prop52
140
1.0
102
RTVSPost2010PropOp52
 70
     0
102
RTVSPost2010Prop53
 90
        2
102
RTVSPost2010PropOp53
 70
     1
102
RTVSPost2010Prop54
  1
strokes_ogs.tif
102
RTVSPost2010PropOp54
 70
     1
102
RTVSPost2010Prop55
280
     0
102
RTVSPost2010PropOp55
 70
     1
102
RTVSPost2010Prop56
140
1.0
102
RTVSPost2010PropOp56
 70
     1
102
RTVSPost2010Prop57
140
1.0
102
RTVSPost2010PropOp57
 70
     1
  0
XRECORD
  5
1C9
102
{ACAD_REACTORS
330
1C8
102
}
330
1C8
100
AcDbXrecord
280
     1
102
RTVSPropertyOp0
 70
     1
102
RTVSPropertyOp1
 70
     1
102
RTVSPropertyOp2
 70
     1
102
RTVSPropertyOp3
 70
     1
102
RTVSPropertyOp4
 70
     1
102
RTVSPropertyOp5
 70
     1
102
RTVSPropertyOp6
 70
     1
102
RTVSPropertyOp7
 70
     1
102
RTVSPropertyOp8
 70
     1
102
RTVSPropertyOp9
 70
     1
102
RTVSPropertyOp10
 70
     1
102
RTVSPropertyOp11
 70
     1
102
RTVSPropertyOp12
 70
     1
102
RTVSPropertyOp13
 70
     1
102
RTVSPropertyOp14
 70
     1
102
RTVSPropertyOp15
 70
     1
102
RTVSPropertyOp16
 70
     1
102
RTVSPropertyOp17
 70
     1
102
RTVSPropertyOp18
 70
     1
102
RTVSPropertyOp19
 70
     1
102
RTVSPropertyOp20
 70
     1
102
RTVSPropertyOp21
 70
     1
102
RTVSPropertyOp22
 70
     1
102
RTVSPropertyOp23
 70
     1
102
RTVSPropertyOp24
 70
     1
102
RTVSPropertyOp25
 70
     1
102
RTVSPropertyOp26
 70
     1
102
RTVSPropertyOp27
 70
     1
102
RTVSPropertyOp28
 70
     1
102
RTVSPropertyOp29
 70
     1
102
RTVSPropertyOp30
 70
     1
102
RTVSPropertyOp31
 70
     1
102
RTVSPropertyOp32
 70
     1
102
RTVSPropertyOp33
 70
     1
102
RTVSPropertyOp34
 70
     1
102
RTVSPropertyOp35
 70
     1
102
RTVSPropertyOp36
 70
     1
102
RTVSPropertyOp37
 70
     1
102
RTVSPropertyOp38
 70
     1
102
RTVSPropertyOp39
 70
     1
102
RTVSPropertyOp40
 70
     1
102
RTVSPropertyOp41
 70
     1
102
RTVSPropertyOp42
 70
     1
102
RTVSPropertyOp43
 70
     1
102
RTVSPropertyOp44
 70
     1
102
RTVSPropertyOp45
 70
     1
102
RTVSPropertyOp46
 70
     1
102
RTVSPropertyOp47
 70
     1
102
RTVSPropertyOp48
 70
     1
102
RTVSPropertyOp49
 70
     1
102
RTVSPropertyOp50
 70
     1
102
RTVSPropertyOp51
 70
     0
102
RTVSPropertyOp52
 70
     0
102
RTVSPropertyOp53
 70
     1
102
RTVSPropertyOp54
 70
     1
102
RTVSPropertyOp55
 70
     1
102
RTVSPropertyOp56
 70
     1
102
RTVSPropertyOp57
 70
     1
102
RTVSPost2010Prop28
280
     0
102
RTVSPost2010PropOp28
 70
     1
102
RTVSPost2010Prop29
280
     1
102
RTVSPost2010PropOp29
 70
     1
102
RTVSPost2010Prop30
280
     1
102
RTVSPost2010PropOp30
 70
     1
102
RTVSPost2010Prop31
280
     0
102
RTVSPost2010PropOp31
 70
     1
102
RTVSPost2010Prop32
280
     0
102
RTVSPost2010PropOp32
 70
     1
102
RTVSPost2010Prop33
280
     0
102
RTVSPost2010PropOp33
 70
     1
102
RTVSPost2010Prop34
280
     0
102
RTVSPost2010PropOp34
 70
     1
102
RTVSPost2010Prop35
280
     0
102
RTVSPost2010PropOp35
 70
     1
102
RTVSPost2010Prop36
280
     0
102
RTVSPost2010PropOp36
 70
     1
102
RTVSPost2010Prop37
 90
       50
102
RTVSPost2010PropOp37
 70
     1
102
RTVSPost2010Prop38
140
0.0
102
RTVSPost2010PropOp38
 70
     1
102
RTVSPost2010Prop39
140
1.0
102
RTVSPost2010PropOp39
 70
     1
102
RTVSPost2010Prop40
 90
        0
102
RTVSPost2010PropOp40
 70
     1
102
RTVSPost2010Prop41ColorIndex
 90
       18
102
RTVSPost2010Prop41ColorRGB
 90
        0
102
RTVSPost2010PropOp41
 70
     1
102
RTVSPost2010Prop42
 90
       50
102
RTVSPost2010PropOp42
 70
     1
102
RTVSPost2010Prop43
 90
        3
102
RTVSPost2010PropOp43
 70
     1
102
RTVSPost2010Prop44ColorIndex
 90
        5
102
RTVSPost2010Prop44ColorRGB
 90
      255
102
RTVSPost2010PropOp44
 70
     1
102
RTVSPost2010Prop45
280
     0
102
RTVSPost2010PropOp45
 70
     1
102
RTVSPost2010Prop46
 90
       50
102
RTVSPost2010PropOp46
 70
     1
102
RTVSPost2010Prop47
 90
       50
102
RTVSPost2010PropOp47
 70
     1
102
RTVSPost2010Prop48
 90
       50
102
RTVSPost2010PropOp48
 70
     1
102
RTVSPost2010Prop49
280
     0
102
RTVSPost2010PropOp49
 70
     1
102
RTVSPost2010Prop50
 90
       50
102
RTVSPost2010PropOp50
 70
     1
102
RTVSPost2010Prop51ColorIndex
 90
      256
102
RTVSPost2010Prop51ColorRGB
 90
-16777216
102
RTVSPost2010PropOp51
 70
     0
102
RTVSPost2010Prop52
140
1.0
102
RTVSPost2010PropOp52
 70
     0
102
RTVSPost2010Prop53
 90
        2
102
RTVSPost2010PropOp53
 70
     1
102
RTVSPost2010Prop54
  1
strokes_ogs.tif
102
RTVSPost2010PropOp54
 70
     1
102
RTVSPost2010Prop55
280
     0
102
RTVSPost2010PropOp55
 70
     1
102
RTVSPost2010Prop56
140
1.0
102
RTVSPost2010PropOp56
 70
     1
102
RTVSPost2010Prop57
140
1.0
102
RTVSPost2010PropOp57
 70
     1
  0
XRECORD
  5
1CB
102
{ACAD_REACTORS
330
1CA
102
}
330
1CA
100
AcDbXrecord
280
     1
102
RTVSPropertyOp0
 70
     1
102
RTVSPropertyOp1
 70
     1
102
RTVSPropertyOp2
 70
     1
102
RTVSPropertyOp3
 70
     1
102
RTVSPropertyOp4
 70
     1
102
RTVSPropertyOp5
 70
     1
102
RTVSPropertyOp6
 70
     1
102
RTVSPropertyOp7
 70
     1
102
RTVSPropertyOp8
 70
     1
102
RTVSPropertyOp9
 70
     1
102
RTVSPropertyOp10
 70
     1
102
RTVSPropertyOp11
 70
     1
102
RTVSPropertyOp12
 70
     1
102
RTVSPropertyOp13
 70
     1
102
RTVSPropertyOp14
 70
     1
102
RTVSPropertyOp15
 70
     1
102
RTVSPropertyOp16
 70
     1
102
RTVSPropertyOp17
 70
     1
102
RTVSPropertyOp18
 70
     1
102
RTVSPropertyOp19
 70
     1
102
RTVSPropertyOp20
 70
     1
102
RTVSPropertyOp21
 70
     1
102
RTVSPropertyOp22
 70
     1
102
RTVSPropertyOp23
 70
     1
102
RTVSPropertyOp24
 70
     1
102
RTVSPropertyOp25
 70
     1
102
RTVSPropertyOp26
 70
     1
102
RTVSPropertyOp27
 70
     1
102
RTVSPropertyOp28
 70
     1
102
RTVSPropertyOp29
 70
     1
102
RTVSPropertyOp30
 70
     1
102
RTVSPropertyOp31
 70
     1
102
RTVSPropertyOp32
 70
     1
102
RTVSPropertyOp33
 70
     1
102
RTVSPropertyOp34
 70
     1
102
RTVSPropertyOp35
 70
     1
102
RTVSPropertyOp36
 70
     1
102
RTVSPropertyOp37
 70
     1
102
RTVSPropertyOp38
 70
     1
102
RTVSPropertyOp39
 70
     1
102
RTVSPropertyOp40
 70
     1
102
RTVSPropertyOp41
 70
     1
102
RTVSPropertyOp42
 70
     1
102
RTVSPropertyOp43
 70
     1
102
RTVSPropertyOp44
 70
     1
102
RTVSPropertyOp45
 70
     1
102
RTVSPropertyOp46
 70
     1
102
RTVSPropertyOp47
 70
     1
102
RTVSPropertyOp48
 70
     1
102
RTVSPropertyOp49
 70
     1
102
RTVSPropertyOp50
 70
     1
102
RTVSPropertyOp51
 70
     0
102
RTVSPropertyOp52
 70
     0
102
RTVSPropertyOp53
 70
     1
102
RTVSPropertyOp54
 70
     1
102
RTVSPropertyOp55
 70
     1
102
RTVSPropertyOp56
 70
     1
102
RTVSPropertyOp57
 70
     1
102
RTVSPost2010Prop28
280
     0
102
RTVSPost2010PropOp28
 70
     1
102
RTVSPost2010Prop29
280
     1
102
RTVSPost2010PropOp29
 70
     1
102
RTVSPost2010Prop30
280
     1
102
RTVSPost2010PropOp30
 70
     1
102
RTVSPost2010Prop31
280
     0
102
RTVSPost2010PropOp31
 70
     1
102
RTVSPost2010Prop32
280
     0
102
RTVSPost2010PropOp32
 70
     1
102
RTVSPost2010Prop33
280
     0
102
RTVSPost2010PropOp33
 70
     1
102
RTVSPost2010Prop34
280
     0
102
RTVSPost2010PropOp34
 70
     1
102
RTVSPost2010Prop35
280
     0
102
RTVSPost2010PropOp35
 70
     1
102
RTVSPost2010Prop36
280
     0
102
RTVSPost2010PropOp36
 70
     1
102
RTVSPost2010Prop37
 90
       50
102
RTVSPost2010PropOp37
 70
     1
102
RTVSPost2010Prop38
140
0.0
102
RTVSPost2010PropOp38
 70
     1
102
RTVSPost2010Prop39
140
1.0
102
RTVSPost2010PropOp39
 70
     1
102
RTVSPost2010Prop40
 90
        0
102
RTVSPost2010PropOp40
 70
     1
102
RTVSPost2010Prop41ColorIndex
 90
       18
102
RTVSPost2010Prop41ColorRGB
 90
        0
102
RTVSPost2010PropOp41
 70
     1
102
RTVSPost2010Prop42
 90
       50
102
RTVSPost2010PropOp42
 70
     1
102
RTVSPost2010Prop43
 90
        3
102
RTVSPost2010PropOp43
 70
     1
102
RTVSPost2010Prop44ColorIndex
 90
        5
102
RTVSPost2010Prop44ColorRGB
 90
      255
102
RTVSPost2010PropOp44
 70
     1
102
RTVSPost2010Prop45
280
     0
102
RTVSPost2010PropOp45
 70
     1
102
RTVSPost2010Prop46
 90
       50
102
RTVSPost2010PropOp46
 70
     1
102
RTVSPost2010Prop47
 90
       50
102
RTVSPost2010PropOp47
 70
     1
102
RTVSPost2010Prop48
 90
       50
102
RTVSPost2010PropOp48
 70
     1
102
RTVSPost2010Prop49
280
     0
102
RTVSPost2010PropOp49
 70
     1
102
RTVSPost2010Prop50
 90
       50
102
RTVSPost2010PropOp50
 70
     1
102
RTVSPost2010Prop51ColorIndex
 90
      256
102
RTVSPost2010Prop51ColorRGB
 90
-16777216
102
RTVSPost2010PropOp51
 70
     0
102
RTVSPost2010Prop52
140
1.0
102
RTVSPost2010PropOp52
 70
     0
102
RTVSPost2010Prop53
 90
        2
102
RTVSPost2010PropOp53
 70
     1
102
RTVSPost2010Prop54
  1
strokes_ogs.tif
102
RTVSPost2010PropOp54
 70
     1
102
RTVSPost2010Prop55
280
     0
102
RTVSPost2010PropOp55
 70
     1
102
RTVSPost2010Prop56
140
1.0
102
RTVSPost2010PropOp56
 70
     1
102
RTVSPost2010Prop57
140
1.0
102
RTVSPost2010PropOp57
 70
     1
  0
XRECORD
  5
1BB
102
{ACAD_REACTORS
330
1BA
102
}
330
1BA
100
AcDbXrecord
280
     1
102
RTVSPropertyOp0
 70
     1
102
RTVSPropertyOp1
 70
     1
102
RTVSPropertyOp2
 70
     1
102
RTVSPropertyOp3
 70
     1
102
RTVSPropertyOp4
 70
     1
102
RTVSPropertyOp5
 70
     1
102
RTVSPropertyOp6
 70
     1
102
RTVSPropertyOp7
 70
     1
102
RTVSPropertyOp8
 70
     1
102
RTVSPropertyOp9
 70
     1
102
RTVSPropertyOp10
 70
     1
102
RTVSPropertyOp11
 70
     1
102
RTVSPropertyOp12
 70
     1
102
RTVSPropertyOp13
 70
     1
102
RTVSPropertyOp14
 70
     1
102
RTVSPropertyOp15
 70
     1
102
RTVSPropertyOp16
 70
     1
102
RTVSPropertyOp17
 70
     1
102
RTVSPropertyOp18
 70
     1
102
RTVSPropertyOp19
 70
     1
102
RTVSPropertyOp20
 70
     1
102
RTVSPropertyOp21
 70
     1
102
RTVSPropertyOp22
 70
     1
102
RTVSPropertyOp23
 70
     1
102
RTVSPropertyOp24
 70
     1
102
RTVSPropertyOp25
 70
     1
102
RTVSPropertyOp26
 70
     1
102
RTVSPropertyOp27
 70
     1
102
RTVSPropertyOp28
 70
     1
102
RTVSPropertyOp29
 70
     1
102
RTVSPropertyOp30
 70
     1
102
RTVSPropertyOp31
 70
     1
102
RTVSPropertyOp32
 70
     1
102
RTVSPropertyOp33
 70
     1
102
RTVSPropertyOp34
 70
     1
102
RTVSPropertyOp35
 70
     1
102
RTVSPropertyOp36
 70
     1
102
RTVSPropertyOp37
 70
     1
102
RTVSPropertyOp38
 70
     1
102
RTVSPropertyOp39
 70
     1
102
RTVSPropertyOp40
 70
     1
102
RTVSPropertyOp41
 70
     1
102
RTVSPropertyOp42
 70
     1
102
RTVSPropertyOp43
 70
     1
102
RTVSPropertyOp44
 70
     1
102
RTVSPropertyOp45
 70
     1
102
RTVSPropertyOp46
 70
     1
102
RTVSPropertyOp47
 70
     1
102
RTVSPropertyOp48
 70
     1
102
RTVSPropertyOp49
 70
     1
102
RTVSPropertyOp50
 70
     1
102
RTVSPropertyOp51
 70
     0
102
RTVSPropertyOp52
 70
     0
102
RTVSPropertyOp53
 70
     1
102
RTVSPropertyOp54
 70
     1
102
RTVSPropertyOp55
 70
     1
102
RTVSPropertyOp56
 70
     1
102
RTVSPropertyOp57
 70
     1
102
RTVSPost2010Prop28
280
     0
102
RTVSPost2010PropOp28
 70
     1
102
RTVSPost2010Prop29
280
     1
102
RTVSPost2010PropOp29
 70
     1
102
RTVSPost2010Prop30
280
     1
102
RTVSPost2010PropOp30
 70
     1
102
RTVSPost2010Prop31
280
     0
102
RTVSPost2010PropOp31
 70
     1
102
RTVSPost2010Prop32
280
     0
102
RTVSPost2010PropOp32
 70
     1
102
RTVSPost2010Prop33
280
     0
102
RTVSPost2010PropOp33
 70
     1
102
RTVSPost2010Prop34
280
     0
102
RTVSPost2010PropOp34
 70
     1
102
RTVSPost2010Prop35
280
     0
102
RTVSPost2010PropOp35
 70
     1
102
RTVSPost2010Prop36
280
     0
102
RTVSPost2010PropOp36
 70
     1
102
RTVSPost2010Prop37
 90
       50
102
RTVSPost2010PropOp37
 70
     1
102
RTVSPost2010Prop38
140
0.0
102
RTVSPost2010PropOp38
 70
     1
102
RTVSPost2010Prop39
140
1.0
102
RTVSPost2010PropOp39
 70
     1
102
RTVSPost2010Prop40
 90
        0
102
RTVSPost2010PropOp40
 70
     1
102
RTVSPost2010Prop41ColorIndex
 90
       18
102
RTVSPost2010Prop41ColorRGB
 90
        0
102
RTVSPost2010PropOp41
 70
     1
102
RTVSPost2010Prop42
 90
       50
102
RTVSPost2010PropOp42
 70
     1
102
RTVSPost2010Prop43
 90
        3
102
RTVSPost2010PropOp43
 70
     1
102
RTVSPost2010Prop44ColorIndex
 90
        5
102
RTVSPost2010Prop44ColorRGB
 90
      255
102
RTVSPost2010PropOp44
 70
     1
102
RTVSPost2010Prop45
280
     0
102
RTVSPost2010PropOp45
 70
     1
102
RTVSPost2010Prop46
 90
       50
102
RTVSPost2010PropOp46
 70
     1
102
RTVSPost2010Prop47
 90
       50
102
RTVSPost2010PropOp47
 70
     1
102
RTVSPost2010Prop48
 90
       50
102
RTVSPost2010PropOp48
 70
     1
102
RTVSPost2010Prop49
280
     0
102
RTVSPost2010PropOp49
 70
     1
102
RTVSPost2010Prop50
 90
       50
102
RTVSPost2010PropOp50
 70
     1
102
RTVSPost2010Prop51ColorIndex
 90
      256
102
RTVSPost2010Prop51ColorRGB
 90
-16777216
102
RTVSPost2010PropOp51
 70
     0
102
RTVSPost2010Prop52
140
1.0
102
RTVSPost2010PropOp52
 70
     0
102
RTVSPost2010Prop53
 90
        2
102
RTVSPost2010PropOp53
 70
     1
102
RTVSPost2010Prop54
  1
strokes_ogs.tif
102
RTVSPost2010PropOp54
 70
     1
102
RTVSPost2010Prop55
280
     0
102
RTVSPost2010PropOp55
 70
     1
102
RTVSPost2010Prop56
140
1.0
102
RTVSPost2010PropOp56
 70
     1
102
RTVSPost2010Prop57
140
1.0
102
RTVSPost2010PropOp57
 70
     1
  0
XRECORD
  5
1AD
102
{ACAD_REACTORS
330
1AC
102
}
330
1AC
100
AcDbXrecord
280
     1
102
RTVSPropertyOp0
 70
     1
102
RTVSPropertyOp1
 70
     1
102
RTVSPropertyOp2
 70
     1
102
RTVSPropertyOp3
 70
     1
102
RTVSPropertyOp4
 70
     1
102
RTVSPropertyOp5
 70
     1
102
RTVSPropertyOp6
 70
     1
102
RTVSPropertyOp7
 70
     1
102
RTVSPropertyOp8
 70
     1
102
RTVSPropertyOp9
 70
     1
102
RTVSPropertyOp10
 70
     1
102
RTVSPropertyOp11
 70
     1
102
RTVSPropertyOp12
 70
     1
102
RTVSPropertyOp13
 70
     1
102
RTVSPropertyOp14
 70
     1
102
RTVSPropertyOp15
 70
     1
102
RTVSPropertyOp16
 70
     1
102
RTVSPropertyOp17
 70
     1
102
RTVSPropertyOp18
 70
     1
102
RTVSPropertyOp19
 70
     1
102
RTVSPropertyOp20
 70
     1
102
RTVSPropertyOp21
 70
     1
102
RTVSPropertyOp22
 70
     1
102
RTVSPropertyOp23
 70
     1
102
RTVSPropertyOp24
 70
     1
102
RTVSPropertyOp25
 70
     1
102
RTVSPropertyOp26
 70
     1
102
RTVSPropertyOp27
 70
     1
102
RTVSPropertyOp28
 70
     1
102
RTVSPropertyOp29
 70
     1
102
RTVSPropertyOp30
 70
     1
102
RTVSPropertyOp31
 70
     1
102
RTVSPropertyOp32
 70
     1
102
RTVSPropertyOp33
 70
     1
102
RTVSPropertyOp34
 70
     1
102
RTVSPropertyOp35
 70
     1
102
RTVSPropertyOp36
 70
     1
102
RTVSPropertyOp37
 70
     1
102
RTVSPropertyOp38
 70
     1
102
RTVSPropertyOp39
 70
     1
102
RTVSPropertyOp40
 70
     1
102
RTVSPropertyOp41
 70
     1
102
RTVSPropertyOp42
 70
     1
102
RTVSPropertyOp43
 70
     1
102
RTVSPropertyOp44
 70
     1
102
RTVSPropertyOp45
 70
     1
102
RTVSPropertyOp46
 70
     1
102
RTVSPropertyOp47
 70
     1
102
RTVSPropertyOp48
 70
     1
102
RTVSPropertyOp49
 70
     1
102
RTVSPropertyOp50
 70
     1
102
RTVSPropertyOp51
 70
     0
102
RTVSPropertyOp52
 70
     0
102
RTVSPropertyOp53
 70
     1
102
RTVSPropertyOp54
 70
     1
102
RTVSPropertyOp55
 70
     1
102
RTVSPropertyOp56
 70
     1
102
RTVSPropertyOp57
 70
     1
102
RTVSPost2010Prop28
280
     0
102
RTVSPost2010PropOp28
 70
     1
102
RTVSPost2010Prop29
280
     1
102
RTVSPost2010PropOp29
 70
     1
102
RTVSPost2010Prop30
280
     1
102
RTVSPost2010PropOp30
 70
     1
102
RTVSPost2010Prop31
280
     0
102
RTVSPost2010PropOp31
 70
     1
102
RTVSPost2010Prop32
280
     0
102
RTVSPost2010PropOp32
 70
     1
102
RTVSPost2010Prop33
280
     0
102
RTVSPost2010PropOp33
 70
     1
102
RTVSPost2010Prop34
280
     0
102
RTVSPost2010PropOp34
 70
     1
102
RTVSPost2010Prop35
280
     0
102
RTVSPost2010PropOp35
 70
     1
102
RTVSPost2010Prop36
280
     0
102
RTVSPost2010PropOp36
 70
     1
102
RTVSPost2010Prop37
 90
       50
102
RTVSPost2010PropOp37
 70
     1
102
RTVSPost2010Prop38
140
0.0
102
RTVSPost2010PropOp38
 70
     1
102
RTVSPost2010Prop39
140
1.0
102
RTVSPost2010PropOp39
 70
     1
102
RTVSPost2010Prop40
 90
        0
102
RTVSPost2010PropOp40
 70
     1
102
RTVSPost2010Prop41ColorIndex
 90
       18
102
RTVSPost2010Prop41ColorRGB
 90
        0
102
RTVSPost2010PropOp41
 70
     1
102
RTVSPost2010Prop42
 90
       50
102
RTVSPost2010PropOp42
 70
     1
102
RTVSPost2010Prop43
 90
        3
102
RTVSPost2010PropOp43
 70
     1
102
RTVSPost2010Prop44ColorIndex
 90
        5
102
RTVSPost2010Prop44ColorRGB
 90
      255
102
RTVSPost2010PropOp44
 70
     1
102
RTVSPost2010Prop45
280
     0
102
RTVSPost2010PropOp45
 70
     1
102
RTVSPost2010Prop46
 90
       50
102
RTVSPost2010PropOp46
 70
     1
102
RTVSPost2010Prop47
 90
       50
102
RTVSPost2010PropOp47
 70
     1
102
RTVSPost2010Prop48
 90
       50
102
RTVSPost2010PropOp48
 70
     1
102
RTVSPost2010Prop49
280
     0
102
RTVSPost2010PropOp49
 70
     1
102
RTVSPost2010Prop50
 90
       50
102
RTVSPost2010PropOp50
 70
     1
102
RTVSPost2010Prop51ColorIndex
 90
      256
102
RTVSPost2010Prop51ColorRGB
 90
-16777216
102
RTVSPost2010PropOp51
 70
     0
102
RTVSPost2010Prop52
140
1.0
102
RTVSPost2010PropOp52
 70
     0
102
RTVSPost2010Prop53
 90
        2
102
RTVSPost2010PropOp53
 70
     1
102
RTVSPost2010Prop54
  1
strokes_ogs.tif
102
RTVSPost2010PropOp54
 70
     1
102
RTVSPost2010Prop55
280
     0
102
RTVSPost2010PropOp55
 70
     1
102
RTVSPost2010Prop56
140
1.0
102
RTVSPost2010PropOp56
 70
     1
102
RTVSPost2010Prop57
140
1.0
102
RTVSPost2010PropOp57
 70
     1
  0
XRECORD
  5
1CD
102
{ACAD_REACTORS
330
1CC
102
}
330
1CC
100
AcDbXrecord
280
     1
102
RTVSPropertyOp0
 70
     1
102
RTVSPropertyOp1
 70
     1
102
RTVSPropertyOp2
 70
     1
102
RTVSPropertyOp3
 70
     1
102
RTVSPropertyOp4
 70
     1
102
RTVSPropertyOp5
 70
     1
102
RTVSPropertyOp6
 70
     1
102
RTVSPropertyOp7
 70
     1
102
RTVSPropertyOp8
 70
     1
102
RTVSPropertyOp9
 70
     1
102
RTVSPropertyOp10
 70
     1
102
RTVSPropertyOp11
 70
     1
102
RTVSPropertyOp12
 70
     1
102
RTVSPropertyOp13
 70
     1
102
RTVSPropertyOp14
 70
     1
102
RTVSPropertyOp15
 70
     1
102
RTVSPropertyOp16
 70
     1
102
RTVSPropertyOp17
 70
     1
102
RTVSPropertyOp18
 70
     1
102
RTVSPropertyOp19
 70
     1
102
RTVSPropertyOp20
 70
     1
102
RTVSPropertyOp21
 70
     1
102
RTVSPropertyOp22
 70
     1
102
RTVSPropertyOp23
 70
     1
102
RTVSPropertyOp24
 70
     1
102
RTVSPropertyOp25
 70
     1
102
RTVSPropertyOp26
 70
     1
102
RTVSPropertyOp27
 70
     1
102
RTVSPropertyOp28
 70
     1
102
RTVSPropertyOp29
 70
     1
102
RTVSPropertyOp30
 70
     1
102
RTVSPropertyOp31
 70
     1
102
RTVSPropertyOp32
 70
     1
102
RTVSPropertyOp33
 70
     1
102
RTVSPropertyOp34
 70
     1
102
RTVSPropertyOp35
 70
     1
102
RTVSPropertyOp36
 70
     1
102
RTVSPropertyOp37
 70
     1
102
RTVSPropertyOp38
 70
     1
102
RTVSPropertyOp39
 70
     1
102
RTVSPropertyOp40
 70
     1
102
RTVSPropertyOp41
 70
     1
102
RTVSPropertyOp42
 70
     1
102
RTVSPropertyOp43
 70
     1
102
RTVSPropertyOp44
 70
     1
102
RTVSPropertyOp45
 70
     1
102
RTVSPropertyOp46
 70
     1
102
RTVSPropertyOp47
 70
     1
102
RTVSPropertyOp48
 70
     1
102
RTVSPropertyOp49
 70
     1
102
RTVSPropertyOp50
 70
     1
102
RTVSPropertyOp51
 70
     0
102
RTVSPropertyOp52
 70
     0
102
RTVSPropertyOp53
 70
     1
102
RTVSPropertyOp54
 70
     1
102
RTVSPropertyOp55
 70
     1
102
RTVSPropertyOp56
 70
     1
102
RTVSPropertyOp57
 70
     1
102
RTVSPost2010Prop28
280
     0
102
RTVSPost2010PropOp28
 70
     1
102
RTVSPost2010Prop29
280
     1
102
RTVSPost2010PropOp29
 70
     1
102
RTVSPost2010Prop30
280
     1
102
RTVSPost2010PropOp30
 70
     1
102
RTVSPost2010Prop31
280
     0
102
RTVSPost2010PropOp31
 70
     1
102
RTVSPost2010Prop32
280
     0
102
RTVSPost2010PropOp32
 70
     1
102
RTVSPost2010Prop33
280
     0
102
RTVSPost2010PropOp33
 70
     1
102
RTVSPost2010Prop34
280
     0
102
RTVSPost2010PropOp34
 70
     1
102
RTVSPost2010Prop35
280
     0
102
RTVSPost2010PropOp35
 70
     1
102
RTVSPost2010Prop36
280
     0
102
RTVSPost2010PropOp36
 70
     1
102
RTVSPost2010Prop37
 90
       50
102
RTVSPost2010PropOp37
 70
     1
102
RTVSPost2010Prop38
140
0.0
102
RTVSPost2010PropOp38
 70
     1
102
RTVSPost2010Prop39
140
1.0
102
RTVSPost2010PropOp39
 70
     1
102
RTVSPost2010Prop40
 90
        0
102
RTVSPost2010PropOp40
 70
     1
102
RTVSPost2010Prop41ColorIndex
 90
       18
102
RTVSPost2010Prop41ColorRGB
 90
        0
102
RTVSPost2010PropOp41
 70
     1
102
RTVSPost2010Prop42
 90
       50
102
RTVSPost2010PropOp42
 70
     1
102
RTVSPost2010Prop43
 90
        3
102
RTVSPost2010PropOp43
 70
     1
102
RTVSPost2010Prop44ColorIndex
 90
        5
102
RTVSPost2010Prop44ColorRGB
 90
      255
102
RTVSPost2010PropOp44
 70
     1
102
RTVSPost2010Prop45
280
     0
102
RTVSPost2010PropOp45
 70
     1
102
RTVSPost2010Prop46
 90
       50
102
RTVSPost2010PropOp46
 70
     1
102
RTVSPost2010Prop47
 90
       50
102
RTVSPost2010PropOp47
 70
     1
102
RTVSPost2010Prop48
 90
       50
102
RTVSPost2010PropOp48
 70
     1
102
RTVSPost2010Prop49
280
     0
102
RTVSPost2010PropOp49
 70
     1
102
RTVSPost2010Prop50
 90
       50
102
RTVSPost2010PropOp50
 70
     1
102
RTVSPost2010Prop51ColorIndex
 90
      256
102
RTVSPost2010Prop51ColorRGB
 90
-16777216
102
RTVSPost2010PropOp51
 70
     0
102
RTVSPost2010Prop52
140
1.0
102
RTVSPost2010PropOp52
 70
     0
102
RTVSPost2010Prop53
 90
        2
102
RTVSPost2010PropOp53
 70
     1
102
RTVSPost2010Prop54
  1
strokes_ogs.tif
102
RTVSPost2010PropOp54
 70
     1
102
RTVSPost2010Prop55
280
     0
102
RTVSPost2010PropOp55
 70
     1
102
RTVSPost2010Prop56
140
1.0
102
RTVSPost2010PropOp56
 70
     1
102
RTVSPost2010Prop57
140
1.0
102
RTVSPost2010PropOp57
 70
     1
  0
ENDSEC
  0
EOF
